STILLNESS OF HEART by Lenny Kravitz.-

INTRO: 

  G
|------------------------|
|------------------------|
|------------------------| -> *4
|-8h10-8h10^-8----4h5^~~ |
|--------------10--------|
|------------------------|

VERSE:

    G
I'm out here on the street 
There's no one left to meet
The things that were so sweet
No longer move my feet
             F
But I keep trying
            D#
I keep on trying

CHORUS: (An acoustic guitar strum normal chords)

A#5             F5
    All that I want is
                 C5
  Stillness of heart
             D#5  A#5
  So I can start
               F5
   To find my way
              C5
  Out of the dark
                  D#5~
  And into your heart

(Intro Riff*2)


w/VERSE:

I got more than I can eat
A life that can't be beat
Yet still I feel this heat
I'm feeling incomplete
What am I buying?
My soul is crying

(CHORUS *2)

BRIDGE: (An acoustic guitar strum normal chords)

             C5
Where's the love?
                       D#5
What is this world we live in?
             C5
Where's the love?
                      D#5
We've got to keep on giving
             C5
Where's the love?
                     D#5
What happened to forgiving?
   F5
Anyone?

SOLO: G (I'm working on it)

CHORUS

&&&&&&&&&&&&&&&&&&&&&&&&&

CHORDS:

    G   F   D#     A#5  F5  C5 D#5      A#  C
|---3---1---6---|-------------------|---1---0---|---------------------|
|---3---1---8---|-------------------|---3---1---|-- Simbols used: ----|
|---4---2---8---|-----------5---8---|---3---0---|--8h10 -> Hammer on -|
|---5---3---8---|---8---3---5---8---|---3---2---|--5~~ -> Let ring ---|
|---5---3---6---|---8---3---3---6---|---1---3---|--10^ -> Bend up ----|
|---3---1---x---|---6---1-----------|---1---x---|-- x -> Don't play --|


&&&&&&&&&&&&&&&&&&&&&&&&&

Questions? Comments? All welcome at my mail: [email protected] 
I would like if anyone got the solo send it 2 me Plz.


Текст, аккорды и табулатура для песни "Stillness Of Heart", исполняет "Kravitz Lenny".
Используемые в песне аккорды можно найти в разделе Как брать аккорды. Аккорды для шестиструнной гитары. Другие песни можно найти на нашем сайте, воспользовавшись алфавитным указателем вверху страницы.


 
Ошибка в тексте? Выделите ошибку и нажмите Ctrl+Enter