Lenny Kravitz
 heaven help
 transcribed by Marcos Prieto ([email protected])

 Notation legend:
 +...+... = is the rhythm of the drum. '+' represent the drum bass.
        ~ = let ring.
        / = slide down.
         = slide up.
        h = hammer on.
       () = low sounds or piano notes. Play this if you want.

 The fills and the rhythm aren't 100 % correct, but I think you won't distinguish from
 the original. Anyway listen the CD.

 Intro:

G|--------------------|
D|--------------------|
A|-2~-------------5~--| x2
E|------2~---0~-------|


 Verse 1:

   +...+...+...+...+...+...+...+...+...+...+...+...+...+...+...+...+...
G|----------------------------------------------------------------2----|
D|---------4~--------------4~--------------4-2-0--0~-------0~---24-----|
A|-2~--------------2~--------------2~----------------------------------|
E|---------------------------------------------------------------------|


Chorus 1:

   + . . . + . . . + . . . + . . . + . . . + . . . + . . . + . . .
G|------------------------------------------------------------------|
D|---------4(2-4-2)--------4(2-4-2)--------4(2-4-2)------------98)--|
A|-2---------------2---------------2--------------------------------|
E|-------------------------------------------------0----/3-5(5---5--|

   + . . . + . . . + . . . + . . . + . . . + . . . + . . .
G --------------------------------------------------------|
D ---------4(2-4-2)--------4(2-4-2)2-------0-----0~-------|
A -2---------------2--------------------------------------|
E --------------------------------------------------------|


 Post-chorus 1:

   + . . . + . . . + . . . + . . .
G|--------------------------------|
D|---------4~------2~------0~-----|
A|-2~-----------------------------|x2
E|--------------------------------|


 Verse 2:

 . . . + . . . + . . . + . . . + . . . + . . . + . . . + . . . + . . .
G|----------------------------------------------------------------------|
D|---------------------4~---------4-2------------------4~---------------|
A|-0-1/2~------------2---------------4-2~-------------------------------|
E|--------------------------------------------------------------0h2-4-6-|

   + . . . + . . . + . . . + . . . + . . . + . . . + . . . + . . .
G --------------------------------------------------------/9-7-----|
D -----------------4---2---0-----0~---------------(0)----------97--|
G -2~------------------------------------------------------------9-|
E -----------------------------------------------------------------|


 Chorus 2:

   + . . . + . . . + . . . + . . . + . . . + . . . + . . . + . . .
G|------------------------------------------------------------------|
D|---------4(2-4-2)--------4(2-4-2)--------4(2-4-2)2----------------|
A|-2---------------2---------------2-----------------------0-02-04--|
E|------------------------------------------------------------------|

   + . . . + . . . + . . . + . . . + . . . + . . . + . . . + . . .
G ------------------------------------------------------------------|
D ---------4(2-4-2)--------4(2-4-2)2-------0~----0~-----------------|
A -2---------------2------------------------------------------------|
E ------------------------------------------------------------------|


 Post-chorus 2:

   + . . . + . . . + . . . + . . . + . . . + . . . + . . . + . . .
G|-------------------------------------------------------------------|
D|---------4~-----/14---1412---------------4~------2~------2---------|
A|-2~-----------------------1412---2~------------------------0-02-04-|
E|------------------------------14-----------------------------------|


 Bridge:

   + . . . + . . . + . . . + . . . + . . . + . . . + . . .
G|---------------------------------------------------------|
D|-0-----0-0-0--00---------------------------------------4-|
A|-----------------4-----4-4-44----4-----4-4---------------|
E|-------------------------------------------4--24-2-------|

   + . . . + . . . + . . . + . . . + . . . + . . . + . . .
G ----------------------------------------------------------|
D -------1-2-------------0~--------0~-------////---19-1921--|
A ---2-4---------0-0-------------------------------------19-|
E ----------------------------------------------------------|


 Chorus 3:

   + . . . + . . . + . . . + . . . + . . . + . . . + . . . + . . .
G|------------------------------------------------------------------|
D|---------4(2-4-2)--------4(2-4-2)--------4(2-4-2)2----------------|
A|-2---------------2---------------2-----------------------0-02-024-|
E|------------------------------------------------------------------|

   + . . . + . . . + . . . + . . . + . . . + . . . + . . . + . . .
G ------------------------------------------------------------------|
D ---------4(2-4-2)--------4(2-4-2)2~------0-----0~-----------------|
A -2---------------2------------------------------------------------|
E ------------------------------------------------------------------|


 Post-chorus 3 (Outro):

   + . . . + . . . + . . . + . . . + . . . + . . . + . . . + . . .
G|------------------------------------------------------------------|
D|---------4~-----/14---1412----------------------------------------|
A|-2~-----------------------1412---2~--------------2/7-----5--------|
E|------------------------------14---------2~----------------0-5-2--|

   + . . . + . . . + . . . + . . . + . . . + . . . + . . . + . . .
G|-----------------------------------------------------------------|
D|---------4~-----/14---1412---------------------------------------|
A|-2~-----------------------1412---2~------------------------------|
E|------------------------------14---------2~----------------------|
 fade out______________________________________>


Текст, аккорды и табулатура для песни "Heaven Help", исполняет "Kravitz Lenny".
Используемые в песне аккорды можно найти в разделе Как брать аккорды. Аккорды для шестиструнной гитары. Другие песни можно найти на нашем сайте, воспользовавшись алфавитным указателем вверху страницы.


 
Ошибка в тексте? Выделите ошибку и нажмите Ctrl+Enter