Dig In
              by Lenny Kravitz
(As I heard it on his new album lenny)

Intro:

|-----------------------------------------------------------
|-----------------------------------------------------------
|-2-2-2-2-2-2-2-2-2-2-2-2-2-2-4-4-4-4-4-4-4-4-4-4-4-4-4-4-4-
|-2-2-2-2-2-2-2-2-2-2-2-2-2-2-4-4-4-4-4-4-4-4-4-4-4-4-4-4-4-
|-0-0-0-0-0-0-0-0-0-0-0-0-0-0-2-2-2-2-2-2-2-2-2-2-2-2-2-2-2-
|-----------------------------------------------------------

 -------------------------------------------|
 -------------------------------------------|
 -7-7-7-7-7-7-7-7-7-7-7-7-7-7-7-7-7-7-7-7-7-|
 -7-7-7-7-7-7-7-7-7-7-7-7-7-7-7-7-7-7-7-7-7-|
 -5-5-5-5-5-5-5-5-5-5-5-5-5-5-5-5-5-5-5-5-5-|
 -------------------------------------------|

Verse:

|-----|-----------------------------|
|-----|-----------------------------|
|-----|-----------4-------------4---|
|-4-4-|-X-X-X-X-X-4-4-X-X-X-X-X-4-4-| This is repeated many 
|-4-4-|-X-X-X-X-X-2-4-X-X-X-X-X-2-4-| times.
|-2-2-|-X-X-X-X-X---2-X-X-X-X-X---2-|


Pre-Chorus:

|---------------------------------|
|---------------------------------|
|-7-7-7-7-7-7-7-7-----------------|
|-7-7-7-7-7-7-7-7-7-7-7-7-7-7-7-7-|
|-5-5-5-5-5-5-5-5-7-7-7-7-7-7-7-7-|
|-----------------5-5-5-5-5-5-5-5-|

|---------------------------------|
|---------------------------------|
|-7-7-7-7-7-7-7-7-8-8-8-8-9-9-9-9-|
|-7-7-7-7-7-7-7-7-8-8-8-8-9-9-9-9-|
|-5-5-5-5-5-5-5-5-6-6-6-6-7-7-7-7-|
|---------------------------------|

Chorus:

same as intro.

Solo:

I cannot figure it out. I know that is in the F# minor penthatonic position.

That's all, have fun


Текст, аккорды и табулатура для песни "Dig In", исполняет "Kravitz Lenny".
Используемые в песне аккорды можно найти в разделе Как брать аккорды. Аккорды для шестиструнной гитары. Другие песни можно найти на нашем сайте, воспользовавшись алфавитным указателем вверху страницы.


 
Ошибка в тексте? Выделите ошибку и нажмите Ctrl+Enter