Artist: Lenny Kravitz
Title: Are You Gonna Go My Way
From: [email protected]
b=bend to
/=slide up   
down
~=with vibrato
h=hammer on
p=pull 
   X2
A|----------------------------|------------------------------
E|--------------0-----------0-|--------------0---------------
VERSES:
play this a bunch of times:
e|----------------------------|                  
B|----------------------------|                 
                 
D|-----------2-----0---2------| 
A|----------------------------|                
E|--------------0-----------0-|                
...until this...                                                 
e|------------------------------|                   e|------------------------------|
B|------------------------------|                   B|------------------------------|
G|-5b7b5--3---------------------|                   
 X3  then this... D|------------------------------|
A|------------------------------|                   A|------------------------------|
E|--------------3-------------3-|                   E|------------------------------|
with thumb______|
go back to playing first part of verse
CHORUS:
e|--0---0--0-----------------------|----0----|--------------|--------------|-0---0--0--------0-|
B|--3---3--3--------------------2--|-2--2----|-/9--9--7--9--|--9--9--12--9-|-3---3--3--------2-|
G|--4---4--4--------------------2--|-2--2----|-/9--9--7--9--|--9--9--12--9-|-4---4--4--------2-|
D|---------------------------------|---------|--------------|--------------|-----------------2-|
A|---------------------------------|---------|--------------|--------------|-----------------0-|       
X4 same as intro
Interlude (with Flanger) play 4 times:
e|-------------------------------|-------------------------|
B|--9-----X---7-------X---X---7--|------X---5-----7---5----|
G|--9-----X---7-------X---X---7--|------X---6-----7---6----|
D|--9-----X---7-------X---X---7--|------X---7-----7---7----|
A|-------------------------------|-------------------------|       
E|-------------------------------|-------------------------|
Solo:
e|-------------------------|-------------------|--------------------------------------|
B|-------------------------|-------------------|--------------------------------------|
G|----------------12h14-12-|-------------------|--------------------------------------|
D|--12-14~~~~~~~-----------|-------14p12----12-|--14----------------------------------|
A|-------------------------|-------------14----|------1412------10-----11------------|       
Chorus:
e|--0-------------|---0--------------|----0-----------0-------------------|
e|--3-------------|---2--------------|----3-----------2-------------------|
e|--4-------------|---2--------------|----4-----------2-------------------|
e|----------------|------------------|------------------------------------|
e|----------------|------------------|------------------------------------|
e|----------------|------------------|------------------------------------|
                                                           /--- Toggle switch on & off
e|--------------------|-------------------|----0-----------0----------------|-----------|
e|--/9---9--7---9-----|---9---9--12--9----|----3-----------2----------------|-----------|
e|--/9---9--7---9-----|---9---9--12--9----|----4-----------2----------------|-----------|
e|--------------------|-------------------|----------------2----------------|-----------|
e|--------------------|-------------------|----------------0----------------|-----------|
e|--------------------|-------------------|---------------------------------|-5--------|


Текст, аккорды и табулатура для песни "Are You Gonna Go My Way", исполняет "Kravitz Lenny".
Используемые в песне аккорды можно найти в разделе Как брать аккорды. Аккорды для шестиструнной гитары. Другие песни можно найти на нашем сайте, воспользовавшись алфавитным указателем вверху страницы.


 
Ошибка в тексте? Выделите ошибку и нажмите Ctrl+Enter