Again
by Lenny Kravitz
Transcribed by:Gabe

Email:[email protected]
AIM:IbanezProne

I realized the tabs to play this song were incorrect so I decided to tab
it out the right way. I saw this song performed live and I tabbed it out
the way it was played. 


To play this song like they do set your guitar for 
neck and bridge pick ups with light distortion. 

Key:
h -Hammer On
p -Pull Off
DB -Dive Bomb
/ -Slide Up
 -Slide Down
~ -Vibrato
b -Bend


Intro:

e-----------0----------------------0-------------------------0-----------
b------0------0h2-0-----------0-------0h2-0---------------0-----0h2-0----
g---2-----2---------2------2-----2----------2-----------2---2---------2--
d------------------------------------------------------------------------
a-0----------------------------------------------------------------------
E--------------------(2)-2----------------------(0)--0-------------------


e-----------0h2p0------------2~---------
b-------0---------0h2p0------3~---------
g-2-(2)---2-------------2~---2~---------
d----------------------------0~---------
a---------------------------------------
E---------------------------------------


Verse 1      

e-2~---------2~------------
b-3~---------2~------------
g-2~---1~----3~------------
d-0~---2~----4~------------
a------2~----4~------------
E------0~----2~------------
             ^ some type of slide

Chorus

e---------0--------------------0--------------------0---------
b-----0-----0h2-0----------0-----0h2-0----------0-----0h2-0---
g---2---2---------2------2---2---------2------2---2---------2-
d-------------------------------------------------------------
a-0-----------------------------------------------------------
E------------------(2)-2-----------------(0)-0----------------
(All of my life....) same as intro..


Verse 2 Same as Verse 1 
then play chorus again

Solo
                                 (hold)
e--------------------------------12b14--12--10-10-12-9-
b--12b14--12b14--12b14-(12~)--10-----------------------
g------------------------------------------------------
d------------------------------------------------------
a------------------------------------------------------
E------------------------------------------------------


e-------------------------------------------
b-10h12p10h12p10h10p12----------------------
g-------------------------------------------
d-------------------------------------------
a-------------------------------------------
E-------------------------------------------
                                   Hold Bend
e---------------9-10-12b14-(12)----17b~(17)------------------
b-9-10-9-10--12----------------------------------------------
g------------------------------------------------------------
d------------------------------------------------------------
a------------------------------------------------------------
E------------------------------------------------------------

e--/21-21-19-17-19--21-22-21-19-17-19-17-----------------------
b--------------------------------------------------------------
g--------------------------------------------------------------
d--------------------------------------------------------------
a----------------------------------------------10-10/DB--------
E----------------------------------------------10-10/DB--------
                                               ^ Dive bomb here

Play Chorus 3 or 4 times


Outro

e--------------------------------------
b-2-2-2-2------------------------------
g-2-2-2-2--2-2-2-2---------------------
d-2-2-2-2--2-2-2-2---------------------
a-0-0-0-0--x-x-x-x---------------------
E----------2-2-2-2---------------------
(I wonder if ill ever see you again...)
Pump through these chords a few times as the outro and fade


Thats the whole song, it took alot of work so ENJOY!


Текст, аккорды и табулатура для песни "Again", исполняет "Kravitz Lenny".
Используемые в песне аккорды можно найти в разделе Как брать аккорды. Аккорды для шестиструнной гитары. Другие песни можно найти на нашем сайте, воспользовавшись алфавитным указателем вверху страницы.


 
Ошибка в тексте? Выделите ошибку и нажмите Ctrl+Enter