Song: Baby, Now that I found you
Artist: Alison Krauss
Transcribed by: Daniel C. Lachica Jr., 
Info: University of the Philippines fine arts student
Addy: [email protected]

STANDARD TUNING - capo on first fret
All chords and transcriptions relative to capo

Intro: 

(A)
    Dsus2                   C/Dsus2                   B/Dsus2
e|--------0------------0-------------0------------0--------------0------|
B|--3--3--------3---3----------3--3--------3--3----------3--3-----------|
G|--2--2------------2-------------2-----------2-------------0-----------|
D|--0--------0----------------------------------------------------------|
A|--------------------------3-----------3-------------2-----------------|
E|----------------------------------------------------------------------|
                   Bb/Dsus2 
e|------------0--------------0--------------0---------------------------|
B|-----3--3----------3---3-----------3--3-------------------------------|
G|--------0--------------0--------------0-------------------------------|
D|----------------------------------------------------------------------|
A|--2--------------1--------------1-------------------------------------|
E|----------------------------------------------------------------------|

(B)
    Dsus2                      Em
e|----------0------------0-----------------0-------------0--------------|
B|----3--3--------3---3------------0---0---------0---0------------------|
G|-------2------------2----------------0-------------0------------------|
D|--0-----------0----------------------3-------------3------------------|
A|----------------------------------------------------------------------|
E|-----------------------------0--------------0-------------------------|

     G                          A
e|----------------------------------------------------------------------|
B|------0---0-0-0----0-0-0---------0-0------0-0-------------------------|
G|----------0-0-0----0-0-0---------0-0------0-0-------------------------|
D|----------0-0-0----0-0-0---------0-0------0-0-------------------------|
A|------------------------------0--------0------------------------------|
E|---3-------------3----------------------------------------------------|

Repeat intro twice

TAB1:
e|----------0-----------------------------------------------------------|
B|---3--3---------3----------------1-------1----------------------------|
G|------2------------------------------0--------------------------------|
D|-0------------0----------------------2--------------------------------|
A|---------------------0----2---3-----------------0---------------------|
E|---------------------------------------------3------------------------|

Repeat tab1
Do Intro (B) for first part of verse

Verse part two:

      B                            F#m
e|---------------2------------2-----------------------------------------|
B|-------4---4----------4--4------------2---2-------2---2---------------|
G|-----------4-------------4----------------2-----------2---------------|
D|------------------------------------------4-----------4---------------|
A|----2--------------2--------------------------------------------------|
E|---------------------------------2-------------2----------------------|

     B                            F#m
e|---------------2------------2-----------------------------------------|
B|-------4---4----------4--4------------2---2-------2---2---------------|
G|-----------4-------------4----------------2-----------2---------------|
D|------------------------------------------4-----------4---------------|
A|----2--------------2--------------------------------------------------|
E|---------------------------------2-------------2----------------------|


         B       Bb    A
e|----------------------------------------------------------------------|
B|-------4-4-----3-----2------------------------------------------------|
G|-------4-4-----3-----2------------------------------------------------|
D|-------4-4-----3-----2------------------------------------------------|
A|-------2-2-----1-----0------------------------------------------------|
E|----------------------------------------------------------------------|

Verse part three:

    A                          Em
e|----------------------------------------0------------0----------------|
B|----0-0------0--0------------------0---0---------0---0----------------|
G|----0-0------0--0----------------------0-------------0----------------|
D|----0-0------0--0----------------------3-------------3----------------|
A|--0-------0-----------------------------------------------------------|
E|-----------------------------0--------------0-------------------------|

     G                          A
e|----------------------------------------------------------------------|
B|------0---0-0-0----0-0-0---------0-0------0-0-------------------------|
G|----------0-0-0----0-0-0---------0-0------0-0-------------------------|
D|----------0-0-0----0-0-0---------0-0------0-0-------------------------|
A|------------------------------0--------0------------------------------|
E|---3-------------3----------------------------------------------------|

guitar solo:
 
e|----------5---5-----------------------------------------5-------------|
B|---3h5/7--------3--3--5s7----8-----10---8---7s5-----5s3-------3--3----|
G|----------------------------------------------------------------------|
D|----------------------------------------------------------------------|
A|----------------------------------------------------------------------|
E|----------------------------------------------------------------------|

e|-----------3s5--3-------------5--------------7---------------------18-|
B|---3—3h5-----------6---5---3-----3--3---3/5-----5----5---5s7--5----8--|
G|----------------------------------------------------------------------|
D|----------------------------------------------------------------------|
A|----------------------------------------------------------------------|
E|----------------------------------------------------------------------|

e|---7----5-------------------------------------------------------------|
B|---8----5-------------------------------------------------------------|
G|--------------5s7---5-------------------------------------------------|
D|------------------------7---------------------------------------------|
A|----------------------------------------------------------------------|
E|----------------------------------------------------------------------|

Violin solo (by Jomar Agojo): 
e|----------------------------------------------------------------------|
B|----------------------------------------------------------------------|
G|----------------------------------------------------------------------|
D|------4-7-7----4-5-7-5-4----------------------5/7-5-------------------|
A|--5h7--------5-----------7-5-5/7---5--54-4-5-------8-----------------|
E|---------------------------------7------------------------------------|

e|----------------------------------------------------------------------|
B|----------------------------------------------------------------------|
G|----------------------------------------------------------------------|
D|---------------------7/9------------4-5-4-------7/9-7-----------------|
A|--------5-5-5--5-7-5-----7-7-7----5-------5-----------7h9-7-----------|
E|--5-5-5-------------------------7-----------7-5-------------10--------|

*************************************************************************

Riffs:
e|------------------------------------------5---------------------------|
B|---0----3----5----3---5s7--5-------------3----------------------------|
G|----------------------------------------------------------------------|
D|----------------------------------------------------------------------|
A|----------------------------------------------------------------------|
E|----------------------------------------------------------------------|


Riffs:
e|----5------2s0------0------------------2s0---------------5------------|
B|--5---5--3------3-------------------3----------------3----------------|
G|----------------------------------------------------------------------|
D|----------------------------------------------------------------------|
A|----------------------------------------------------------------------|
E|----------------------------------------------------------------------|

Riffs:
e|----------------------------------------------------------------------|
B|--5—7s5--3--5---------------------------------------------------------|
G|----------------------------------0--2--3--4--------------------------|
D|----------------------------------------------------------------------|
A|----------------------------------------------------------------------|
E|----------------------------------------------------------------------|

(the riffs above can be heard at the second verse of the song about 2:18 of the track)
*************************************************************************

Baby,
now that I've found you
I won't let you go
I built my world around you
I need you so,
baby even though
You don't need me
now

Baby,
now that I've found you
I won't let you go
I built my world around you
I need you so
Baby even though
You don't need me,
You don't need me oh, no

Baby, baby,
when first we met
I knew in this heart of mine

That you were someone I couldn't forget.
I said right,
and abide my time

Spent my life looking
for that somebody
to make me feel like new
Now you tell me that you want to leave me
But darling, I just can't let you

[guitar & fiddle solo]

Baby, baby,
when first we met
I knew in this heart of mine
That you were someone I couldn't forget.
I said right,
and abide my time

Spent my life looking
for that somebody
to make me feel like new
Now you tell me that you want to leave me
But darling, I just can't let you

Now that I found you
I built my world around you

I need you so, baby even though
You don't need me now

Baby, now that I've found you
I won't let you go
I built my world around you
I need you so
Baby even though
You don't need me
You don't need me no, no
**************************************************************************

listen to the song for timing...
simply pluck the strings for Dsus2 for the outro...

that's all folks!!!
dj to the x!!! djx


Текст, аккорды и табулатура для песни "Baby Now That I Found You", исполняет "Krauss Alison".
Используемые в песне аккорды можно найти в разделе Как брать аккорды. Аккорды для шестиструнной гитары. Другие песни можно найти на нашем сайте, воспользовавшись алфавитным указателем вверху страницы.


 
Ошибка в тексте? Выделите ошибку и нажмите Ctrl+Enter