Основное вступление:

     G                        C
E||------------------------|----------------------|
H||----------3-------------|--1----0--------------|
G||-------0-------2--0-----|--0---------2--0------|
D||---------------------0--|----------------------|
A||------------------------|--3-------------------|
E||--3---------------------|----------------------|
                                               
   Em                       D/F#
|--3----2----0-----------|---------------------||
|------------------0-----|--3--------3----1----||
|---------------------0--|--2--------2---------||
|------------------------|--0--------0---------||
|------------------------|---------------------||
|--0---------------------|--2------------------|| 

     G               C/9               G
Нет холода в доме, пока есть вода и заварка,
   G                 C/9                Em   D
Пока для гостей ни того, ни другого не жалко.
   C/9                                 D/9
Копи, не копи, все равно не успеешь потратить...
      G     C Em D/F#
Нам хватит!

Отведав вина, не считать на лозе виноградин,
Смотреть на огонь просто так, не чего-то там ради.
Подальше от тех, о которых забудем, как звать их...
Нам хватит! > 2 раза

И все мы поймем, помогая подняться уставшим.
Так что нам кроить и делиться на наших и ваших?
Пускай по счетам нам никто ничего не заплатит...
Нам хватит! > 2 раза

Нам хватит всего, нам всего понемногу досталось,
Еще бы хоть самую малость, но лень да усталость.
О чем промолчим на последнем, на главном закате?..

Нам хватит! > 3 раза

	
	
	        
Комментарий автора: C/9: x32033 D/9: x54230

Текст, аккорды и табулатура для песни "Нам хватит!", исполняет "Козловский Андрей".
Используемые в песне аккорды можно найти в разделе Как брать аккорды. Аккорды для шестиструнной гитары. Другие песни можно найти на нашем сайте, воспользовавшись алфавитным указателем вверху страницы.


 
Ошибка в тексте? Выделите ошибку и нажмите Ctrl+Enter