KOTITEOLLISUUS: VIIMEINEN LAUSE

Vire: C#-G#-C#-F#-A#-D#

  Tabbed by plikk  
  ****************************************************************************

x = dempattuna


Alkuriffi                  1.      2.
|-------------------------|-------|------|
|-------------------------|-------|------|
|-------------------------|-------|------|
|--0-3-2-0-3-0-2-3--0-2-3-|-0-2-3-|-0----|
|--0-3-2-0-3-0-2-3--0-2-3-|-0-2-3-|-0----|
|--0-3-2-0-3-0-2-3--0-2-3-|-0-2-3-|-0-2b-|

|-------------------------|
|-------------------------|
|-------------------------|
|--0-3--0-2--0-3--0-------|
|--0-3--0-2--0-3--0-------|
|--0-3--0-2--0-3--0-2-2b--|


...Тддllд satelee...
|------------------------------|
|------------------------------|
|------------------------------|
|--0-3--0-2--0-3--0---0-0-000--|
|--0-3--0-2--0-3--0---0-0-000--|
|--0-3--0-2--0-3--0-2-0-0-000--|
                      x x xxx


...Maailma on...           1-3.                         4.
|-------------------------|----------------------------|-------------------|
|-------------------------|----------------------------|-------------------|
|-------------------------|----------------------------|-------------------|
|--5--5--5--5--0--0--0--0-|-7--7--7--7--10--10--10--10-|-7-7-7-7-7-7-7-10--|
|--5--5--5--5--0--0--0--0-|-7--7--7--7--10--10--10--10-|-7-7-7-7-7-7-7-10--|
|--5--5--5--5--0--0--0--0-|-7--7--7--7--10--10--10--10-|-7-7-7-7-7-7-7-10--|
                                                             x     x

                           1.      2.
|-------------------------|-------|------|
|-------------------------|-------|------|
|-------------------------|-------|------|
|--0-3-2-0---0------0-----|-0-----|-0----|
|--0-3-2-0---0------0-----|-0-----|-0----|
|--0-3-2-0-3-0-2-3--0-2-3-|-0-2-3-|-0-2b-|




|-----------------------|
|-----------------------|
|-----------------------|
|--0-3--0-2--0-3--0-----|
|--0-3--0-2--0-3--0-----|
|--0-3--0-2--0-3--0-2b--|

|------------|
|------------|
|------------|
|--0-3--0-2--|
|--0-3--0-2--|
|--0-3--0-2--|


--------------------------------------------------------------------------------------


Текст, аккорды и табулатура для песни "Viimeinen Lause", исполняет "Kotiteollisuus".
Используемые в песне аккорды можно найти в разделе Как брать аккорды. Аккорды для шестиструнной гитары. Другие песни можно найти на нашем сайте, воспользовавшись алфавитным указателем вверху страницы.


 
Ошибка в тексте? Выделите ошибку и нажмите Ctrl+Enter