KOTITEOLLISUUS: MEREN MUTAA

Vire: C#-G#-C#-F#-A#-D#

  ****************************************************************************
 Tabbed by plikk
  ****************************************************************************


Intro
|------------------------------------------|
|------------------------------------------|
|------------------------------------------|
|------------------------------------------|
|------------------------------------------|
|--0-10-12-0-10-12-0-10-12-0-10b--0-10-12--|

...Ugh!...
|-----------------------------------------|
|-----------------------------------------|
|-----------------------------------------|
|--0-10-12-0-10-12-0-10-12-0-10--0-10-12--|
|--0-10-12-0-10-12-0-10-12-0-10--0-10-12--|
|--0-10-12-0-10-12-0-10-12-0-10--0-10-12--|

|----------------------------------|
|----------------------------------|
|----------------------------------|
|--0-2-3-0-2-3-0-----0-2-3-0-2-----|
|--0-2-3-0-2-3-0-----0-2-3-0-2-----|
|--0-2-3-0-2-3-0-2b--0-2-3-0-2-3b--|



...Kohmeisia taloja...
|----------------------------------|
|----------------------------------|
|----------------------------------|
|--0-2-3-0-2-3-0-----0-2-3-0-2-----|
|--0-2-3-0-2-3-0-----0-2-3-0-2-----|
|--0-2-3-0-2-3-0-2b--0-2-3-0-2-3b--|
   x x x x x x x     x x x x x

...Vaihdan asentoa...        1-3.       4.
|---------------------------|----------|--------|
|---------------------------|----------|--------|
|---------------------------|----------|--------|
|--0-2-3-0-2-3-0-----0-2-3--|--0-2-----|--0--2--|
|--0-2-3-0-2-3-0-----0-2-3--|--0-2-----|--0--2--|
|--0-2-3-0-2-3-0-2b--0-2-3--|--0-2-3b--|--0--2--|


...Olen kadottanut...                           1-3.                   4.
|----------------------------------------------|----------------------|------------------------------------
|----------------------------------------------|----------------------|------------------------------------
|------------------5-5-5-5-5-5-5-5-------------|----------------------|------------------------------------
|--3-3-3-3-3-3-3-3-5-5-5-5-5-5-5-5-5-5-5-5-5-5-|-5-5-7-7-7-7-7-7-7-7--|--3-3-2-2-2-2-2-2-2-2-3-3-3-3-3-3-3-
|--3-3-3-3-3-3-3-3-3-3-3-3-3-3-3-3-5-5-5-5-5-5-|-5-5-7-7-7-7-7-7-7-7--|--3-3-2-2-2-2-2-2-2-2-3-3-3-3-3-3-3-
|--3-3-3-3-3-3-3-3-----------------5-5-5-5-5-5-|-5-5-7-7-7-7-7-7-7-7--|--3-3-2-2-2-2-2-2-2-2-3-3-3-3-3-3-3-


Текст, аккорды и табулатура для песни "Meren Muta", исполняет "Kotiteollisuus".
Используемые в песне аккорды можно найти в разделе Как брать аккорды. Аккорды для шестиструнной гитары. Другие песни можно найти на нашем сайте, воспользовавшись алфавитным указателем вверху страницы.


 
Ошибка в тексте? Выделите ошибку и нажмите Ctrl+Enter