MAIN RIFF
e ------------------*--------------------------|
B ---------------------------------------------|
G |0-------------10------------12-------------10-----5--7--|
D |0-------------10------------12-------------10-----5--7--|
A |0-000-000-000-8-000-000-000-10-000-000-000-8-0000-3--5--|
E ---------------------------------------------|
*not sure about this chord

Verse is a slight palm muted variation of the Main Riff.

   Припев:    (...на стене...)             (..в огне..)
e -----------------------------------------------------|
B -----------------------------------------------------|
G --------------------------10-7--5-3--5--7------------|
D --------------------------10-7--5-3--5--7------------|
A -------------12--12--12---8--5--3-1--3--5------------|
E |-66666666668888888881010101010101010-0----------------/xxxxx---|
    
          (Зов теней!)
e ----------|
B ----------|
G ----------|
D |-10---------10----12-|
A |-8--12------8-----10-|
E |----10--0-0---0-0----|

   Solos
e -----------------------------------------------------|
B -----------------------------------------------------|
G -----------------------------------------------------|
D |-----8-7--------Solo 1-w/harmonics, bends.-REPEAT from the start|
A |-5-7-----8-7-5-------------------vibratos,----------------------|
E -----------------------------------------------------|
  P.M.-----------

   Solo 1 Rhythm
e ------------------------------------|
B ------------------------------------|
G ------------------------------------|
D |----7----7----8----8----7----7--10--8----------|
A |-5555-5555-6666-6666-5555-5555--8---6--8-------|
E ----------------------------6-------|

   Solo 2  Gtr1
e -----------*------------------------------------------
B ------------------------------------------------------
G ------------------------------------------------------
D |-2---------7----------2----------7----------2----------7---------
A |-0---------5----------0----------5----------0----------5---------
E ------------------------------------------------------
  |   Gtr2
e ------------------------------------------------------
B ----------------------------------------------15-14-12
G ------------------------------------------------------
D |--11-12-14---15-14-12---14-12-11~-------------11-12-14-----------
A ------------------------13-12~~~----------------------
E ------------------------------------------------------

e -*---------------------------------------------------------------|
B -----------------------------------------------------------------|
G -----------------------------------------------------------------|
D -2----------7----------------------------------------------------|
A -0----------5----------------------------------------------------|
E -----------------------------------------------------------------|
  -
e ---------------------|   *- I am not sure about this chord.
B ---------------------|   Play each chord but don't let it ring at all.
G ---11-12-14----------|
D --------------11-12~-|
A ---------------------|
E ---------------------|

Solo 3 rhythm = MAIN RIFF
PALM MUTE wherever needed.


Текст, аккорды и табулатура для песни "Зов Теней", исполняет "Коррозия Металла".
Используемые в песне аккорды можно найти в разделе Как брать аккорды. Аккорды для шестиструнной гитары. Другие песни можно найти на нашем сайте, воспользовавшись алфавитным указателем вверху страницы.


Слушать онлайн Зов теней


Коррозия металлаЗов теней на Яндекс.Музыке


 
Ошибка в тексте? Выделите ошибку и нажмите Ctrl+Enter