Моторокер-Коррозия Металла
                                  Орден Сатаны

  Ритм1                            4 раза
||----------------------------------------|
||----------------------------------------|
||*-7--5-7--5-7-5------------------------*|
||*-7--5-7--5-7-5-0---------5--0---------*|
||----------------0-0-0-0-0-3--0-0-0-0-0--|
||----------------------------------------|
                                           ___________________________   ______________________
 Связка ритм1                             |1,2                        | |3
||---------------------------------------|-----------------------------|-------------------------|
||---------------------------------------|---------5-------------------|---------5~--------------|
||*-7--5-7--5-7-5------------------------|--7--5-7-5------------------*|--7--5-7-5~--------------|
||*-7--5-7--5-7-5-0---------5--0---------|--7--5-7--------------------*|--7--5-7-----------------|
||----------------0-0-0-0-0-3--0-0-0-0-0-|------------0-0-0-0-0-0-0-0--|-------------------------|
||---------------------------------------|-----------------------------|-------------------------|
 
  1-ый куплет начинается без гитары
 
  Содам       платит     нам         Ритм2       ЧЕС                                  слайд
||------------------------------|  |--------------------|--------------------------------|
||------------------------------|  |--------------------|--------------------------------|
||--8-----7-----6-----5-----2---|  |--------------------|--8-----7-----6-----5-----2-----|
||--8-----7-----6-----5-----2---|  |--------------------|--8-----7-----6-----5-----2-----|
||--6-----5-----4-----3-----0---|  |-000000000000000000-|--6-----5-----4-----3-----0-----|
||------------------------------|  |--------------------|--------------------------------|

 Ритм3  при-припев                 4 раза    
||-----------------------------------------|
||-----------------------------------------|
||*-5-----------------7-------------------*|
||*-5-----------------7-------------------*|
||--3-----------------5--------------------|
||-----------------------------------------|
                         
 Ритм4  припев                           3 раза  4-ый раз     
||---------------------------------------------|----------------------------------------------------------|
||---------------------------------------------|----------------------------------------------------------|
||*-------------------------------------------*|----------------------------------------------------------|
||*-5--7--0---------5--0---------5--0---------*|--5--7--0---------5--0---------5--0---------5--0----------|
||--3--5--0-0-0-0-0-3--0-0-0-0-0-3--0-0-0-0-0--|--3--5--0-0-0-0-0-3--0-0-0-0-0-3--0-0-0-0-0-3--0-0-0-0-0--|
||---------------------------------------------|----------------------------------------------------------|
 
    Связка ритм1
    Ритм2
    ритм3
    ритм4

   риф
||--------------|                 |--------------|
||--------------|                 |--------------|
||--------------|       СОЛО      |--------------|
||--5--6--7--8--|   ритм гитара   |--8--7--6--5--|
||--3--4--5--6--|   играет чес    |--6--5--4--3--|
||--------------|                 |--------------|

     

 Риф 1                                                      4раза
||------------------------------|--------------------------------|  |------------------|
||------------------------------|--------------------------------|  |------------------|
||*---------8--7--5-----5~------|----------8--7--5--------------*|  |--2---#---2---#---|
||*-/7---5-----------7-------7--|--/7---5-----------7-----------*|  |--2---#---2---#---|
||------------------------------|----------------------8---7-----|  |--0-------0-------|
||------------------------------|--------------------------------|  |------------------|

         Ритм3
         Ритм4

   Риф      4раза                           Концовка                4 раза
 ||--------------|--------------------|   ||-------------------------------|
 ||--------------|--------------------|   ||-------------------------------|
 ||*------------*|--2-----------------|   ||*-2-2---2-2----2-2------------*|
 ||*-5--6--7--8-*|--2-----------------|   ||*-2-2---2-2----2-2-----5-7-5--*|
 ||--3--4--5--6--|--0-----------------|   ||--0-0---0-0----0-0---0-3-5-3---|
 ||--------------|--------------------|   ||-------------------------------|










Текст, аккорды и табулатура для песни "Моторокер", исполняет "Коррозия Металла".
Используемые в песне аккорды можно найти в разделе Как брать аккорды. Аккорды для шестиструнной гитары. Другие песни можно найти на нашем сайте, воспользовавшись алфавитным указателем вверху страницы.


Слушать онлайн Моторокер


Коррозия металлаМоторокер на Яндекс.Музыке


 
Ошибка в тексте? Выделите ошибку и нажмите Ctrl+Enter