Ритм 1                                                                                     4 раза
||------------------------|------------------------|------------------------|----------------------|
||------------------------|------------------------|------------------------|----------------------|
||*-----------------------|------------------------|------------------------|---------------------*|
||*----------h-p----------|-----------h-p----------|-----------h-p----------|---p----p----p----p--*|
||--3--0-0--2^3^0--0-0-0--|--3--0-0--2^3^0--0-0-0--|--3--0-0--2^3^0--0-0-0--|--7^0--6^0--5^0--4^0--|
||------------------------|------------------------|------------------------|----------------------|

 Ритм 2а                       2 раза  Ритм 2Б                   2 раза
||-----------------------------------|-----------------------------------|
||-----------------------------------|-----------------------------------|
||*-----------------------------4---*|*---------------------------------*|
||*-----------------------------4---*|*-----------------------------4---*|
||--0-3-2-1-0-1-2-3-0-3-2-1-0-1-2----|------------------------------4----|
||-----------------------------------|--0-3-2-1-0-1-2-3-0-3-2-1-0-1-2----|

   Ритм 1
   Ритм 2Б
   Ритм 1

 Ритм 3  при-припев                                                                 2 раза
||-------------------------------------------|--------------------------------------------|
||-------------------------------------------|--------------------------------------------|
||*-2----------------------------------------|--5----------------------------------------*|
||*-2----------------------------------------|--5----------------------------------------*|
||--0--000--000--000--000--000--000--000--00-|--3--333--333--333--333--333--333--333--33--|
||-------------------------------------------|--------------------------------------------|

 Ритм 4  припев                   4 раза
||---------------------------------------|-----------------------|
||---------------------------------------|-----------------------|
||*-------------------------------------*|-----------------------|
||*-5-5-------3/4---------------6-3-4-5-*|--5-5-------3/4--------|
||--3^0--0-0--1/2--0-0--3-6-5-4----------|--3^0--0-0--1/2--0-0---|
||---p-----------------------------------|---p-------------------|

   Ритм 1
   Ритм 2Б
   Ритм 1
   Ритм 3
   Ритм 4

||------------------------------|
||------------------------------|
||----------------------2-------|
||--5-5-------3/4-------2-------|
||--3^0--0-0--1/2--0-0--0-------|
||------------------------------|

 Ритм 5                                                         4 раза
||--------------------------------------|------------------------------|
||--------------------------------------|------------------------------|
||*-------------------------------------|-----------------------------*|
||*-----5---4-----5-----4---5----7--6---|------5---4-------7--8--9----*|
||--0-0-3-0-2-0-0-3-0-0-2-0-3-0--5--4---|--0-0-3-0-2-0-0---5--6--7-----|
||--------------------------------------|------------------------------|

 Ритм 6                                           4 раза    Риф                                        4 раза
||---------------------------|---------------------------| |-------------------------|------------------------|
||---------------------------|---------------------------| |-------------------------|------------------------|
||*--------------------------|--------------------------*| |*------------------------|-----------------------*|
||*--------------------------|--------------------------*| |*-7^8^7----7---10--9--8--|--7^8^7----7---6--5--4-*|
||--7/8\7-6/7--------10-9-8--|--7/8\7-6/7---------6-5-4--| |--------10---------------|--------10--------------|
||--5/6\5-4/5--5-5-5--8-7-6--|--5/6\5-4/5--5-5-5--4-3-2--| |-------------------------|------------------------|

        Соло

  Концовка
||--------------------|
||--------------------|
||--3--2-----3--2-----|
||--3--2-----3--2-----|
||--1--0-----1--0-----|
||--------------------|


















Текст, аккорды и табулатура для песни "Crazy House", исполняет "Коррозия Металла".
Используемые в песне аккорды можно найти в разделе Как брать аккорды. Аккорды для шестиструнной гитары. Другие песни можно найти на нашем сайте, воспользовавшись алфавитным указателем вверху страницы.


Слушать онлайн Crazy house


Коррозия металлаCrazy house на Яндекс.Музыке


 
Ошибка в тексте? Выделите ошибку и нажмите Ctrl+Enter