Вступленьице:

 Луна средь звезд на темном пастбище блуждала,
 Трактир был слева; справа лес стоял стеной,
 И с высоты луна безмолвно наблюдала
 За тем, кто всюду по пятам ходил за мной.
 В пустом трактире за столом сидел я молча,
 Курил махорку я и думал о своем.
 Взглянул в окно, стал любоваться темной ночью
 Крыльцо увидел - человек лежал на нем.
 РАЗДАЛСА ГРОМ!!! И ветер тучи нагоняя,
 Резвился в поле. Дождь струился проливной.
 А тот на улице валялся не вставая,
 Видать конкретно его хмель сразил пивной(хе-хе).
 Решив помочь ему я вышел в непогоду,
 И удивился: это был столетний дед.(кхе-кхе-ээхе)
 Он прохрипел из уст выплевывая воду:(ээкхе-ээ-бээ)
 "Я как и ты мне еще только тридцать лееееет".
 Он умер, мы его в сарае положили.
 Трактирщик начал мне рассказывать о том,
 Что силы ЗЛА на них проКЛЯТЬе наложили,
 Прислав посланца к ним с рогами и хвостом.


 Потом идет соло: (повторяется 4 раза)
1-------------------------------------------------------|
2|-----5-5----------------------------------------------------------|
3|---------6-6-4-4---6-4----------------4-----4-6-------------------|
4|-7-7-------------7-----4----4---4-7-7---7-7-----4---2/4-4-2/4-4---|
5-------------------7-----------------------------------|
6-------------------------------------------------------|

 

Следующие две строчки играются так:
  
1-------------------------------------------------------|
2-------------------------------------------------------|
3-------------------------------------------------------|
4|-7--7-7-7--7-7-7--7-7-7--4-4-4--4-4-4--4-4-4----------------------|
5|-7--7-7-7--7-7-7--7-7-7--4-4-4--4-4-4--4-4-4----------------------|
6|-5--5-5-5--5-5-5--5-5-5--2-2-2--2-2-2--2-2-2----------------------|
   A                       F#m                          
    Эй друг что за горе   постигло ваши края?
    Что  за  зло на воле? - спросил тарктирщика я
 

 Дальше вроде бы припев: 

1------------------------------------------------------------|
2------------------------------------------------------------|
3|-4--4--4--4--4--4---5--5--5--5--5--5-----------------------------------|
4|-4--4--4--4--4--4---5--5--5--5--5--5---5--5--5--5--5--5---7--7--7--7--7|
5|-2--2--2--2--2--2---3--3--3--3--3--3---5--5--5--5--5--5---7--7--7--7--7|
6----------------------------3--3--3--3--3--3---5--5--5--5--5|
   Hm                 C                G                  A
 В зловешем тумане он жертву находит. Он тихо крадется у нас за спиной. 
 И глядя как с вами беда происходит, он дико смеется и брызжет слюной.

 Жить нам стало худо, исчезла вся молодежь.
 Уезжай скорей отсюда, ты здесь лишь гибель найдешь.

 Припев: .......
 
 Дальше соло    

1-----------------------5----4---2------|
2------------------------------------5--|
3|-2-----4---2h42---2-----4-----2------------------|
4------5--------------------------------|
5---------------------------------------|
6---------------------------------------|

1-----------------------5----4---2------|
2------------------------------------5--|
3|-2-----4---2h42---2-----4-----2------------------|
4------5--------------------------------|
5---------------------------------------|
6---------------------------------------|

1|-4--2-0-2-0---0-2-0---4--2-0-2---0-2-0------------|
2-2------------------2------------------|
3---------------------------------------|
4---------------------------------------|
5---------------------------------------|
6---------------------------------------|


 Не зря трактирщик распирался, он гад служил сатане.
 Ззади тихо черт подкрался, вцепился в волосы мне.
 Услышав чертов мерзкий голос, ему с размаху в рыло дал.
 Но теряя каждый волос, год жизни я терял. 

 Припев: .........
  
  G               Em     
 Теперь я знаю у чертей полно идей.
 Коварством, хитростью, свое они добывают.
 Но хуже нам когда среди людей у них сообщники бывают.

 Дальше соло которое в начале. Конец.


Текст, аккорды и табулатура для песни "Волосокрад", исполняет "Король и Шут".
Используемые в песне аккорды можно найти в разделе Как брать аккорды. Аккорды для шестиструнной гитары. Другие песни можно найти на нашем сайте, воспользовавшись алфавитным указателем вверху страницы.


 
Ошибка в тексте? Выделите ошибку и нажмите Ctrl+Enter