Проигрыш:
   Am  C  Am  G  Am  C  Am
  H|-5---8--5------5---8--5---|
  G-7-------------|

  
Мелодия:
   
  E-----------|
  H|-5-5---5-8-5----5-|-5---5-8-5-----|
  G|-----7-------7----|---7-------7-5-|
  D-----------|

  E|-----5---------|-----5-7-5-----|
  H|-------8-5-----8-5-|
  G7-5-----|
  D|-7-7-----------|-7-7-----------|  

  E|-----5---------|-----5---------|
  H|-------8-5---5-|-------8-5-----|
  G7---7-5-|
  D|-7-7-----------|-7-7-----------|

  E|-----5---------|-----5-7-5-----|
  H|-------8-5-----8-5-|
  G7-5-----|
  D|-7-7-----------|-7-7-----------|

Под припев чтото типа этого

  E|-5-5---------------|
  H|-----8-6-8-5---|-56565656885---| x2
  G--5---5-|
 
 
   Am
  В детстве цыганка мне одна
                     F
  Предсказала, будто я,
                    Dm
  Если сильно полюблю,
                   Am
  То любимого сгублю,

  Что измены не прощу
  И жестоко отмщу,
  Не специально, но со зла
  Превращу его в осла.

  Он очень милым парнем был,
  Но зачем он изменил?
  И тогда все началось -
  Предсказание сбылось.

  И внезапно над собой
  Потеряла я контроль,
  И несчастный стал стонать,
  Серой шерстью обрастать.

Припев:
     F     G       Am
    Ведьма я, эх, ведьма я -
       Dm                   Am
    Такая вот нелегкая судьба моя.
    Силой я наделена,
    Но на беду любовь моя обречена.

Проигрыш
  
  И мой любимый навсегда
  Жить остался у меня,
  И за мною по пятам
  Он ходил и тут и там.

  Замечала я порой,
  Как страдает милый мой,
  И жалела я осла -
  На лугу его пасла.

  Я все хотела как-нибуть
  Облик милого вернуть,
  Я старалась, как могла,
  Но ничем не помогла.

  Он копытами стучал,
  По-ослиному кричал
  И хвостом своим вертел -
  Человеком быть хотел.

Припев
Проигрыш

  Лишь понял он, что обречен
  До заката своих дней
  Быть страдающим ослом
  Под опекою моей,

  И в итоге, наконец,
  Он приблизил свой конец -
  Что-то выпил, что-то съел
  И, беняга, околел.

Припев 2раза.	
Проигрыш


Текст, аккорды и табулатура для песни "Ведьма и осел", исполняет "Король и Шут".
Используемые в песне аккорды можно найти в разделе Как брать аккорды. Аккорды для шестиструнной гитары. Другие песни можно найти на нашем сайте, воспользовавшись алфавитным указателем вверху страницы.


 
Ошибка в тексте? Выделите ошибку и нажмите Ctrl+Enter