x2
--------------------------
1-1-1---------1-----------
------------2---4-2-2---0-
------2-2-2-----------3---
--------------------------
--------------------------

1-1-1-1-0-----0---------5-3-1-1-7-5-3-5-1-0---------------
----------3-1---1---------------------------3-1---------1-
------------------2-2-4-------------------------4-2-0-----
------------------------------------------------------3---
----------------------------------------------------------
----------------------------------------------------------

chorus
5-3-5-3-1-7-5-3-5-3-3-3-5-3-5-3-1-7-5-3-0-0-1-0-0---
--------------------------------------------------1-
----------------------------------------------------
----------------------------------------------------
----------------------------------------------------
----------------------------------------------------

0-0-------------------0-1-1-1-1-3-5-------------------------
----3-3-1-3-1-------1-----------------1-------1---1-------1-
--------------4-4-4-----------------4---4-4-2---2---4-4-2---
------------------------------------------------------------
------------------------------------------------------------
------------------------------------------------------------


Текст, аккорды и табулатура для песни "Тяни!", исполняет "Король и Шут".
Используемые в песне аккорды можно найти в разделе Как брать аккорды. Аккорды для шестиструнной гитары. Другие песни можно найти на нашем сайте, воспользовавшись алфавитным указателем вверху страницы.


 
Ошибка в тексте? Выделите ошибку и нажмите Ctrl+Enter