solo:
1|---5-7-8p---5-7-8-7-5----10-12-13p----10-12-13-12-10-|
2|-5--------5-----------10-----------10----------------|
3------------------------------------------|
4------------------------------------------|
5------------------------------------------|
6------------------------------------------|
Am          
Молча брожу я средь полей
Dm            E
Тоскую, грущу о даме своей,
Как дорога она мне была,
И без нее мне жизнь не мила.
Помню тот день я , как сейчас,
Сели за стол десятый был час,
Ласково нам светила луна,
Даме своей налил я вина.

Стали мы с ней при свечах танцевать, 
Старался ее я покрепче обнять,
Магнитофон сладко нам пел, 
Я хмельную ее душой и телом хотел.
На пол упало платье ее,
Застучало в груди сердце мое,
В волосы я ей страстно дышал,
Взгляд ее нежный меня сокрушал.

И вот тогда случилась беда, 
Мне этот миг не забыть никогда.
На  арбузную корку наступила она 
И... ХЛОП головой об угол стола,
Вместе с ней падал и я 
Вывихнул руку, но это фигня.
Долго ее я жить умолял,
Арбузную корку я в сердцах проклинал.
Solo:
1|-12p-12-10-8p-7-8-7-5----------------5-7p-12-10-8-14-13-12p-12-13-12-10p-5-7-8-7-3-5|
2-----------------5-7p-5-7------------------------------------------------|
3-----------4-5-7---------------------------------------------------------|
4-------------------------------------------------------------------------|
5-------------------------------------------------------------------------|
6-------------------------------------------------------------------------|
p-pause


Текст, аккорды и табулатура для песни "Прерванная любовь или Арбузная корка", исполняет "Король и Шут".
Используемые в песне аккорды можно найти в разделе Как брать аккорды. Аккорды для шестиструнной гитары. Другие песни можно найти на нашем сайте, воспользовавшись алфавитным указателем вверху страницы.


 
Ошибка в тексте? Выделите ошибку и нажмите Ctrl+Enter