Intro
---------------------------
---------3-----------5----
------------5-----------7-
---------------------------
--6--7--------7--8-------
play 2 times
      A5     F5     G5      G5
---------------------------
---------3-----------5----
------------5-----------7-
---------------------------
--6--7--------7--8-------
play 2 times with chords

play theme 2 times(2 guitars) chords with P.M.

Verse: A5 F5 G5 G5
Two lines of the lyrics are played fast with P.M., third line slower with P.M. and fourth 
line fast without P.M.
then play riff A

riff A:
F5
---------------------------------
---------------------------------
-9--7--9--7--9--7--9--7--5--7-
---------------------------------
---------------------------------
---------------------------------

pre-chorus:
Same chords but in another rhytme.

rhy fig:

*+*+*****(*-pick, +-mute)


chorus:
play the same chords in fast rhytme.


riff B
-----------------------------
-----------------------------
-----------------------------
-----------------------------
-7--5--3--0-----------------

solo

-----------------------------
-----------------------------
-----------------------------
----------5---------5-------
-57-7-7---57-7-7--7-----

play 6 times

lyrics:
 А5           F5      G5
Тяжелый гроб несли к могиле,
Крутого парня хоронили,
Смеялись и шутили,
Над тупым его лицом.
riffA
pre chorus:
Хэй-хэй вся семья
Братья и друзья
chorus:
Парня провожали, 
Плакали и ржали,
Водкой поливали,
В рожу целовали,
F5
 хэй

Ля-ля ля-ля

Verse:
Виновник этого парада
Был не дурак, ушел как надо,
И баба его рада,
Что он ее не застрелил.

Pre-chorus
Chorus

solo

A5                  G5
А он любил собаку
riffB
Бабу, водку, драку,
Main chords
Слезы ненавидел
И если б их увидел, 
Тут же разозлился, 
За наган схватился

F5         G5                                            
И разревелся он бы сам 
E5            A5
 стреляя по слезам.


Текст, аккорды и табулатура для песни "Похороны панка", исполняет "Король и Шут".
Используемые в песне аккорды можно найти в разделе Как брать аккорды. Аккорды для шестиструнной гитары. Другие песни можно найти на нашем сайте, воспользовавшись алфавитным указателем вверху страницы.


 
Ошибка в тексте? Выделите ошибку и нажмите Ctrl+Enter