ЛЕСНИК:

Вступление:                     2 раза

E---------------------3-1---3-1--33—11—00--------------
H---1-3-5---1-3-5---1------1-------------33----13---13-
G—2-------2--------2------2------------------04---04---
D------------------------------------------------------
A------------------------------------------------------
E------------------------------------------------------



Замученный дорогой, я выбился из сил
E--------------------------------
H-----1------1-----1-1—3-5-3-----
G---2--2-2-2--2---2--------------
D--------------------------------
A--------------------------------
E--------------------------------

И в доме лесника я ночлега попросил
E--------------------------------
H-----1------1-----1-1—3-5-3-----
G---2--2-2-2--2---2--------------
D--------------------------------
A--------------------------------
E--------------------------------

С улыбкой добродушной старик меня пустил
E------------------------------
H-----1------1------1-1—3-5-3--
G---2--2-2-2--2---2------------
D------------------------------
A------------------------------
E------------------------------

И жестом дружелюбным на ужин пригласил
E------------------------------
H-----1------1------1---1------
G---2—-2-2-2--2---2--22--2-----
D------------------------------
A------------------------------
E------------------------------




ПРИПЕВ:

Будь как дома путник, я ни в чем ни откажу , я ни в чем ни откажу ,  я ни в чем ни откажу!
E------------1-3-1-1-1-3-------1-1-1-3--------1-1-1-3-1
H—1-1-1-1-1-1-----------1---1-4-------1----1-4---------
G------------------------------------------------------
D------------------------------------------------------
A------------------------------------------------------
E------------------------------------------------------

Множество историй коль желаешь расскажу, коль желаешь расскажу, коль желаешь расскажу!
E------------1-3-1-1-1-3-------1-1-1-3--------1-1-1-3-1
H—1-1-1-1-1-1-----------1---1-4-------1----1-4---------
G------------------------------------------------------
D------------------------------------------------------
A------------------------------------------------------
E------------------------------------------------------

2-й, и 3-й куплет играется так же.




Am                 F         G
Замученный дорогой, я выбился из сил

Am               F          G
И в доме лесника я ночлега попросил

Am                   F          G
С улыбкой добродушной старик меня пустил

Am                 F       G
И жестом дружелюбным на ужин пригласил





ПРИПЕВ:
                                                                      Am    
Будь как дома путник, 
F
я ни в чем ни откажу , 
Dm
я ни в чем ни откажу ,  
G
я ни в чем ни откажу!
                                                                      Am                        
Множество историй 
F
коль желаешь расскажу, 
Dm
коль желаешь расскажу, 
G
коль желаешь расскажу!



Am               F        G
На улице темнело сидел я за столом 

Am                   F         G
Лесник сидел напротив болтал о том о сем 

Am                   F           G
Что нет среди  животных у старика врагов 

Am                F         G
Что нравится ему подкармливать волков!


ПРИПЕВ:


Am                F          G
И волки среди ночи завыли под окном.

Am                 F            G
Старик заулыбался и вдруг покинул дом.

Am                   F        G
Но вскоре возвратился с ружьем наперевес:

Am                     F              G
«Друзья хотят покушать, пойдем приятель в лес»



BASS:

И так все это теперь в басах:

Вступление:

G-----------------------------------------------------------------
D--------------------------5-3----5-3--55-33-22-------------------
A—0--3-5-7---0--3-5-7---0-3----0-3-------------55----2-3-5---2-3-5
E---------------------------------------------------3-------3-----


Куплет:

Замученный дорогой я выбился из сил...   и так далее...  
G-------------------------
D-------------------------
A---3-------3-----33—5-7-5
E—5--5-5-5—5--5-----------


И жестом дружелюбным на ужин пригласил. 
G-------------------------------------
D-------------------------------------
A---3-------3-----3----3--------------
E—5--5-5-5--5---5--5-5--5-------------


ПРИПЕВ:
G---------------------------------------------------------
D---------------------------------------------------------
A-------------3-5-3-3-3-5---------3-3-3-5--------3-3-3-5-3
E--3-3-3-3-3-3------------3---3-6---------3---3-6---------


ПАНКИ И ВСЕ НЕФОРМАЛЫ - "ХОЙ"



Текст, аккорды и табулатура для песни "Лесник", исполняет "Король и Шут".
Используемые в песне аккорды можно найти в разделе Как брать аккорды. Аккорды для шестиструнной гитары. Другие песни можно найти на нашем сайте, воспользовавшись алфавитным указателем вверху страницы.


 
Ошибка в тексте? Выделите ошибку и нажмите Ctrl+Enter