Альбом:      Ели мясо мужики

Обозначения:  pm-----|  Глушение кистью правой руки в районе струнодержателя
              dist on|  Включить эффект "ДИСТОРШН"
              dist off| Выключить эффект "ДИСТОРШН"
              harm---|  Флажолет
              gliss--|  Глиссандо - провести ребром медиатора по струнам

Строй гитар: Стандартный(Ми)

Вступление:

Гитара1(С эффектом "Дисторшн") - Riff1

2----------------------------8-8-6-6--8-8-6-6-5-5-3-3-------------------
3--------5-5-7-7-9-9------2-2-------------------------------4-4-5-5-7-7-
4---7-7--------------3-3-------------------------------5-5--------------
  pm------------------------------------------------------------------|

Гитара2 - Riff1A
     Am               F                Dm               G
1---5----------------1----------------5----------------3---------------
2---5----------------1----------------6----------------3---------------
3---5----------------2----------------7----------------4---------------
4---7----------------3----------------7----------------5---------------
5---7----------------3----------------5----------------5---------------
6---5----------------1---------------------------------3---------------

Riff1 и Riff1A играются вместе 2 раза

Гитара1(С эффектом "Дисторшн") - Riff2

2-------------------------8-6-------8-6--8-6-5-3-8-8-6-5-3--------------------
3----5-7-9-----5-7-9----2---------2---------------------------4-5-7-----4-5-7-
4--7-------7-7--------3-------3-3---------------------------5-------5-5--------

Гитара2 (dist on) - Riff2A
     A5                F5                D5               G5
1-------------------------------------------------------------------------------
2-------------------------------------------------------------------------------
3----------------------------------------7-7-7-7-7-7-7-7-7----------------------
4--7-7-7-7-7-7-7-7-7--3-3-3-3-3-3-3-3-3--7-7-7-7-7-7-7-7-7--5-5-5-5-5-5-5-5-5-5-
5--7-7-7-7-7-7-7-7-7--3-3-3-3-3-3-3-3-3--5-5-5-5-5-5-5-5-5--5-5-5-5-5-5-5-5-5-5-
6--5-5-5-5-5-5-5-5-5--1-1-1-1-1-1-1-1-1---------------------3-3-3-3-3-3-3-3-3-3-  
pm----------------------------------------------------------------------------|

Riff2 и Riff2A играются вместе 2 раза, второй раз Гитара2 играет без глушения

Гитара1 (dist on) -  Fill1

1---------------------------------------------------------------------------
2---------------------------------------------------------------------------
3--------------------------------------7-x-7-x-7-7-7-7-7--------------------
4--7-/-------------------------7--3-3--7-x-7-x-7-7-7-7-7--5-5-5-5-5-5-5-5-5-  x2
5--7-/-------------------------7--3-3--5-x-5-x-5-5-5-5-5--5-5-5-5-5-5-5-5-5-
6--5-/-------------------------5--1-1---------------------3-3-3-3-3-3-3-3-3-  
gliss------------------------|
Второй раз играется без глиссандо

Гитара1 (dist on) -  Fill2

1------------
2------------
3-----7--9---
4--7--7--9---
5--7--5--7---
6--5---------

Гитара1 (dist on) -  Fill3

1-----------------------
2-----------------------
3--------------------5--
4--7-----------5--3--5--
5--7-----------5--3--3--
6--5-----------3--1-----
harm---------|

С боем на куплетах я думаю разберетесь, если послушаете песню.

A5                  F5          G5
Измученный дорогой, я выбился из сил.
    A5                F5         G5
И в доме лесника я ночлега попросил.
С улыбкой добродушной он меня в пустил.
  A5(dist on)                         [Fill2]
И жестом дружелюбным на ужин пригласил.

  Chorus (Riff2A):
   A5                            F5
  Будь как дома, путник, я не в чем не откажу,
          D5                    G5
  Я ни в чем не откажу, я ни в чем не откажу!
           A5                         F5
  Множество историй, коль желаешь, расскажу,
                  D5                      G5     [Fill3]
  Коль желаешь, расскажу, коль желаешь, расскажу!

На улице темнело, сидел я за столом.
Лесник сидел напротив, болтал о том, о сем.
Что нет среди животных у старика врагов,
Что нравится ему подкармливать волков.

  Chorus

И волки среди ночи завыли под окном
Старик заулыбался и вдруг покинул дом,
Но вскоре возвратился с ружьем на перевес
Друзья хотят покушать пойдем приятель в лес!

  Chorus+End

End:

1-------------------------------------------
2-------------------------------------------
3-------------------------------------------   
4-------------------------------------------    x2
5----7-7-8-7---7-7-8-7---3-3-5-3---5-5-7-5--
6--5---------5---------1---------3----------



Текст, аккорды и табулатура для песни "Лесник", исполняет "Король и Шут".
Используемые в песне аккорды можно найти в разделе Как брать аккорды. Аккорды для шестиструнной гитары. Другие песни можно найти на нашем сайте, воспользовавшись алфавитным указателем вверху страницы.


 
Ошибка в тексте? Выделите ошибку и нажмите Ctrl+Enter