Аккорд N берется как Hm на 8 ладу. (Истинное название я не знаю)
Intro1 (В две гитары )  
Cm                   Gm                           
--------------------------66-------66---
------66-99-----66-99-------99-------99-
-55-88-----55-88-----55-88----55-88-----

N                    A#
-66--------66-----------------------------
---99-88-66--99-88-66-----44-66-----44-66-
---------------------33-66-----33-66------

Intro2
Cm            Gm            
-----------------6-----6-
----6-9----6-9----9-----9
-5-8---55-8---5-8--55-8--

N             A#
-6-----66------------------
--9-8-6--9-8-6---4-6----4-6
--------------3-6---33-6---
(Все аккорды желательно брать на баре)
Intro1(2 раза)
Intro2(2 раза)
Am                    F          G
Замученный дорогой, я выбился из сил
Am                    F          G
И в доме лесника я ночлега попросил
Am                    F          G
С улыбкой добродушной старик меня впустил
Am
И жестом дружелюбном на ужин пригласил.
Припев:
Am                          F
Будь как дома путник я ни в чем не откажу,
       Dm                    G
Я ни в чем не откажу, я ни в чем не откажу!
Множество историй коль желаешь, расскажу,
Коль желаешь, расскажу, коль желаешь, расскажу!

На улице темнело, сидел я за столом,
Лесник сидел напротив, болтал о том, о сем,
Что нет среди животных у старика врагов,
Что нравится ему подкармливать волков!

Пр.

И волки среди ночи завыли под окном,
Старик заулыбался и вдруг покинул дом,
Но вскоре возвратился с ружьем наперевес:
"Друзья хотят покушать, пойдем, приятель, в лес !"

Пр.


Текст, аккорды и табулатура для песни "Лесник", исполняет "Король и Шут".
Используемые в песне аккорды можно найти в разделе Как брать аккорды. Аккорды для шестиструнной гитары. Другие песни можно найти на нашем сайте, воспользовавшись алфавитным указателем вверху страницы.


 
Ошибка в тексте? Выделите ошибку и нажмите Ctrl+Enter