E-------------------------------|играется 2 раза
B-------------------------------|
G-------------------------------|
D-----0-------------------------|
A---2---2--1--------------------|
E|--0-0-0--3-5------------2t3-3-3-3-3-3-----|

E----------------------------------------------------|играется 4 раза
B----------------------------------------------------|
G----------------------------------------------------|
D----------------------------------------------------|
A|-2--5--7--9--12--9--8-----------------------4-4h5-5h7-7--------|
E|-0--3--5--7--10--7--6---2-3-2-3-2-3-2--5-5---------------------|

E----|
B----|
G----|
D----|
A----|
E----|
  играется 4 раза 
E-----------------------------------------------------------------------| 
B-----------------------------------------------------------------------|
G-----------------------------------------------------------------------|
D-------4---6--6--7---4---------------------4---------------------------|
A|----------0------------------------------------0------------------------3---------|
E|---7--5------7------------------------7---5-------7--------4--4---5---------------|

  2 раза (не совсем точно, но похоже)
E-----------------------------------------------------------------------| 
B-----------------------------------------------------------------------| 
G-----------------------------------------------------------------------|
D-----------------------------------------------------------------------|
A-------------2--1--1--0----------------------------2--1--1--0--0-------|
E|---0-0---3--0--5---3-------------------0-0---3--0--5---3--------------------------|
  1 раз
E-----------------------------------------------------------------------|
B-----------------------------------------------------------------------|
G-----------------------------------------------------------------------|
D------------2--1--1--0------------------------2--1--1--0--0------------|
A|---0-0---3--0--5---3-----------------0-0---3--0--5---3----------------------------|
E-----------------------------------------------------------------------|
  1 раз
E-----------------------------------------------------------------------| 
B-----------------------------------------------------------------------|
G-----------------------------------------------------------------------|
D-----------------------------------------------------------------------|
A------------2--1--1--0------------------------2--1--1--0--0------------|
E|---0-0---3---5---3-------------------0-0---3---5---3------------------------------|

   басовая партия
E-----------------|
B-----------------|
G-----------------|
D-----------------|
A---|--7----7---------|--7----7-----------|
E|--0--6---0--6-|----6----6---|--0--6---0--6--|----6----6----|-0---6---0---6--|
     
 сколько раз играть каждую ноту не указываю, думаю сами разберетесь

  
  затем обыгрываются вот эти 2 рифа     

E-----------------------------|
B-----------------------------|
G|---9------------------3-----------------|
D|---9------------------3-----------------|
A|---7------------------1-----------------|
E-----------------------------|



Текст, аккорды и табулатура для песни "Коктейль Молотова", исполняет "Король и Шут".
Используемые в песне аккорды можно найти в разделе Как брать аккорды. Аккорды для шестиструнной гитары. Другие песни можно найти на нашем сайте, воспользовавшись алфавитным указателем вверху страницы.


 
Ошибка в тексте? Выделите ошибку и нажмите Ctrl+Enter