В начале идет Басс
1------------------------------------------------------------------------------
2------------------------------------------------------------------------------
3---------------------------------------------4--------------------------------
4---------------------6--4--------4--6-----6----6--------------------6--4------
5---0--4--6--7-----6--------4--7--------4----------0--4--6--7-----6---------4--
6---------------4----------------------------------------------4---------------



             A  G#         C#m
  Грохочет гром, сверкает молния в ночи,
           A G#       C#m
  А на холме стоит безумец и кричит:
          A          G#           C#m
  "Сейчас поймаю тебя в сумку, и сверкать ты будешь в ней.
           A              G#       C#m
  Мне так хочется, чтоб стала ты моей".

   A             G#    C#m
    То парень к лесу мчится,
   A            G#      C#m
    То к полю, то к ручью,
      A     G#7      C#m   A  G# C#m
    Все поймать стремится молнию.

  Весь сельский люд смотреть на это выходил,
  Как на холме безумец бегал и чудил.
  Он, видно, в ссоре с головою, видно, сам себе он враг,
  Надо ж выдумать такое - во дурак.

    То парень к лесу мчится,
    То к полю, то к ручью,
    Все поймать стремится молнию.

  H                    E
  Утром по сельской дороге
            A            H
  Медленно шел ночной герой,
           G#        C#m
  Весь лохматый и седой,
        A    G#
  И улыбался.

  Проигрыш:
   1---------------------------------------------------------------
   2|----5-5-5-4-4-5--2-----5---7--4-5----5-5-7-7-9--5---10-9--(10 9 10 9 10 9)
   3---------2----4------------------------------------------------

   H             Hb    D#m
   То парень к лесу мчится,
   H            Hb      D#m
   То к полю, то к ручью,
      H     Hb7      D#m   H  C# D#m
   Все поймать стремится молнию.

  Аккорды играются на баре с акцентом на нижние струны.


Текст, аккорды и табулатура для песни "Дурак и молния", исполняет "Король и Шут".
Используемые в песне аккорды можно найти в разделе Как брать аккорды. Аккорды для шестиструнной гитары. Другие песни можно найти на нашем сайте, воспользовавшись алфавитным указателем вверху страницы.


 
Ошибка в тексте? Выделите ошибку и нажмите Ctrl+Enter