Вся песня C G Am F


       С
    Си  лы  на     ис хо де,
4---2---3---2------0---0-----------
5-------------------------3--------
       G      
    И   кро во точ ат    ра  ны,
4---0----2---3--2---0-----0------------
5-----------------------------3--------
       Am   
     Жить    е ще  не  поз дно,
4----2------3--2---0---0------------------
5--------------------------3--------
  
       F
    А умирать так  рано.
4 --3--3-3-3---3---3-0-------
 C
Вновь один остался
 G 
И разбежались люди
 Am 
Все кто когда-то клялся
  F 
Что долго не забудят.
   F              C           G 
  А   я  те ря ю  ко   р н и.
2-------------------------1---0--
3--------------------------------0
4-----2--3---2-0-----------------
5-3----------------3--------------
    G                      Am           F
   И   у ле  та ю в    не- е - е     бо
2-------------3--0--- 1-0-1-0-1-0------0-------
3--0---0--0------------------------------------
4----------------------------------------0?---- 
F                C     G
К тому, кого не помню
G              Am      F
Туда, где еще не был.
А я теряю корни.
И улетаю в небо
К тому, кого не помню
Туда, где еще не был.

И только дождь и ветер
Со мной остались рядом
И с ночи до рассвета,
Я напиваюсь ядом.
Остался безответным
И этот вздох последний
Его забрал дождь с ветром
И не принес спасенья.

А я теряю корни.
И улетаю в небо
К тому, кого не помню
Туда, где еще не был.
А я теряю корни.
И улетаю в небо
К тому, кого не помню
Туда, где еще не был.


Текст, аккорды и табулатура для песни "Я теряю корни", исполняет "Корни".
Используемые в песне аккорды можно найти в разделе Как брать аккорды. Аккорды для шестиструнной гитары. Другие песни можно найти на нашем сайте, воспользовавшись алфавитным указателем вверху страницы.


Слушать онлайн Я теряю корни


КорниЯ теряю корни на Яндекс.Музыке


 
Ошибка в тексте? Выделите ошибку и нажмите Ctrl+Enter