Город, которого нет (к/ф "Бандитский Петербург")+соло
 
 Intro:
 1.-5--7--8--10--12--10----------------------------
 2.--------------------------7--7--5--9------------
 
 [Am]Ночь и тишина, данная на [Dm]век,
 [G]Дождь, а может быть падает с[C]нег.
 Все рав[Dm]но бесконечно надеждой сог[F]рет
 Я вда[Dm]ли вижу город, которого [E]нет.
 
 [Am]Где легко найти страннику при[Dm]ют,
 [G]Где наверняка помнят и ж[C]дут
 День за д[Dm]нем то теряя, то путая с[F]лед
 Я и[Dm]ду в этот город, которого [E]нет.
 
 Припев:
 
 [Am]Там для меня горит о[Dm]чаг,
 Как вечный з[F]нак забытых ис[E]тин.
 [Am]Мне до него последний [Dm]шаг
 И этот [F]шаг длиннее жиз[E]ни.
 
 Solo 1:
 1--5--7--8--7--5--0-------------------------------
 2-------------------------3--1--0--1--------------
 3---------------------------------------2---------
 
 [Am]Кто ответит мне, что судьбой да[Dm]но,
 [G]Пусть об этом знать мне не сужде[C]но.
 Может [Dm]быть за порогом растраченных [F]лет
 Я най[Dm]ду этот город, которого [E]нет.
 
 Припев.
 
 Solo 2:
 1---8--10--11-10--8--6-5-6--8-8/12-11-10-14-12-11-
 
 1----12--11/10/11-5-7-9-10-11-10-11-10--14--------
 
 1-------------------------------------------------
 2-----------------------------8-10----------------
 3------------------5-7/9--------------------------
 4-----------5--7----------------------------------
 5---5--7------------------------------------------
 6-------------------------------------------------
 
 Припев.
 
 Outro:
 1--5--7--8--7--5--0-------------------------------
 2-------------------------3--1--0--1--------------
 3---------------------------------------2---------
 
 
 



Текст, аккорды и табулатура для песни "Город, которого нет (к/ф "Бандитский Петербург")", исполняет "Корнелюк Игорь".
Используемые в песне аккорды можно найти в разделе Как брать аккорды. Аккорды для шестиструнной гитары. Другие песни можно найти на нашем сайте, воспользовавшись алфавитным указателем вверху страницы.


 
Ошибка в тексте? Выделите ошибку и нажмите Ctrl+Enter