Tabbed By: Fieldy
Korn
Shot Liver Medley 
Family Values ‘98NOTE: Tune your 7 string down a full step (A D G C F A D)

Intro (Both Guitars)
G|-3-3-----3-3--3-3-|-%-|-%-|-%-|-%-|-%-|
D|-3-3-----3-3--3-3-|-%-|-%-|-%-|-%-|-%-|
A|-1-1-----1-1--1-1-|-%-|-%-|-%-|-%-|-%-|

Fill 1 (Both Guitars)
G|-3-3-----3-3--3-3-|-%-|  d|-2.75--|
D|-3-3-----3-3--3-3-|-%-|       NH
A|-1-1-----1-1--1-1-|-%-|

Intro P2 (Both Guitars)
F|---0-------|
C|--5^-----|
      ^ gradually bend to full step then back down

Verse (Both Guitars) (“Ring around the roses...”)
F |--------0--------|
C|--------5^------|
G|--5--------------|
D|--5--------------|
A|--3--------------|
              ^ 1/ 2 step

Chorus (Both Guitars) (“Nursery rhymes are said...”)
G|-5-----7--7-6---|-%-|-%-|--5----4---3--|
D|-5-----7--7-6---|-%-|-%-|--5----4---3--|
A|-3-----5--5-4---|-%-|-%-|--3----2---1--|

Chorus 2 (Both Guitars)
G|-5-----7--7-6---|-%-|-%-|--5----4---3--|
D|-5-----7--7-6---|-%-|-%-|--5----4---3--|
A|-3-----5--5-4---|-%-|-%-|--3----2---1--|

Chorus 2 (cont.) (Both Guitars)
F|--------------------|-%-|-%-|-----------------------------------0------------|
G|-5-----7--7-6---|-%-|-%-|------------------------------3------------------|
D|-5-----7--7-6---|-%-|-%-|--------------------3----------------------------|
A|-3-----5--5-4---|-%-|-%-|--3-----2----1----------------------------------|
                                                            ^ gtr 2 cut out

Interlude (Guitar 2) (w/ slight pm)
D|-----------4-3--------------4-3------| 4x w/o lyrics
A|-2/3-3-3-----4-3----3-3------4-3-|Fill 2 (Guitar 2) (w/ slight pm)
D|-----------4-3--------------4-3------|-%-|-%-|-------------4-3-------|
A|-2/3-3-3-----4-3----3-3------4-3-|-%-|-%-|-2/3---3-3-----4-3--|

Fill 3 (Guitar 1) (“Mary had a little lamb...”)
C|------------6--5-------|-%-|-%-|--------------6-------|
G|------------6--5-------|-%-|-%-|--------------6-------|
D|------------4--3-------|-%-|-%-|--------------4-------|
A|-2/3-3-3--------------|-%-|-%-|-2/3-3-3------------|

Fill 4 (Both Guitars) (“*** all that bull***...”)
A|-0-0---0--0-0-0---0-0--0-0-0---0--0-0--0--6-0-6-|
(LOW A)

Verse 3 (Guitar 1) (clean)
D|-----------19~~~~--------|-----------5--------------|
A|------------------------------|------3-------------------|
F|------------------------------|---6-----------------------|
 w/ whammy^                        ^ w/ fast tremelo

Verse 3 (Guitar 2) (w/ envelope filter)
D|-10-7----7-10-7---------9-6----9-6--|
A|--------0------------0---0-------0-------|
 PM----------------------------------------|

Fill 5 (Both Guitars) (“GO!!!!)
G|-------76------76-109--|
D|--7/8-54-7/8-54-8--7-|
A|--5/6------5/6--------------|

Fill 6 (Both Guitars)
G|-------76------76---------|
D|--7/8-54-7/8-54--87--|
A|--5/6------5/6--------65--|

Chorus 3 (Both Guitars) (“Ball tongue!!!”)
D|-2--2---2--2-2--3-3-|
A|-0--0---0--0-0--1-1-|

Interlude P2 (Both Guitars) (“*** you, I’m fed up...”)
D|-3-3--22--2--|
A|-1-1--00--0--|

Fill 7 (Both Guitars)
D|-3-3--22-22-22-22-|
A|-1-1--00-00-00-00-|

Interlude P3 (Both Guitars)
D|-33-22--22-22--22-222-|
A|-11-00--00-00--00-000-|

End (Guitar 1)
C|---------------------------------------4--------------------
G|--5--------------------4-------------4----3-----5-------
D|--5--------------------4-------------2----3-----5--------
A|--3--------------------2-------------------1----3---------

End (cont.)
C|---------------------------------4-------------------|
G|--------------0----4------------4-----------3-----|
D|--------------------4------------2------------3----|
A|--------------------2-------------------------1-----|

Song Structure: -
Bagpipes
Intro (Both Guitars)
Fill 1 (Both Guitars)
Intro P2 (Both Guitars)
Verse (Both Guitars)
Chorus (Both Guitars)
Verse (Both Guitars)
Chorus (Both Guitars) (Gtr. 2 cuts out near end)
Crowd Cheering
Interlude (Gtr. 2)
Fill 2 (Gtr. 2) (“Knick knack patty whack..”)
Interlude (Both Guitars)
Fill 2 (Both Guitars)
Interlude (Gtr. 2)/Fill 3 (Gtr. 1)
Fill 4 (Both Guitars)
Verse 3 (Gtr. 1)/Verse 3 (Gtr. 2)
Fill 5 (Both Guitars)
Fill 6 (Both Guitars)
Chorus 3 (Both Guitars)
Bass Break
Interlude P2 (Both Guitars)
Fill 7 (Both Guitars)
Interlude P3 (Both Guitars)
End (Gtr. 1)

Alright there ya go. A lovely medley.


Текст, аккорды и табулатура для песни "Shot Liver Medley", исполняет "Korn".
Используемые в песне аккорды можно найти в разделе Как брать аккорды. Аккорды для шестиструнной гитары. Другие песни можно найти на нашем сайте, воспользовавшись алфавитным указателем вверху страницы.


 
Ошибка в тексте? Выделите ошибку и нажмите Ctrl+Enter