Korn - Good God
(Life Is Peachy)
Tabber: Scott Burns

                          3x
    D|--------------------||-------------------|--------------|---------------|
    A|--------------------||-------------------|-----------7*-|-------7*~-----|
    F|-----5*-------5*----||----4*-------5*----|-----%-5*~----|-----%-----7*--|
    C|--------------------||-------------------|--------------|---------------|
    G|--------------------||-------------------|--------------|---------------|
    D|--5-4---4-4-4---5-4-||-5-4---4-4-4---5-4-|-5-4----------|-5-4-----------|
    A|--3-2---2-2-2---3-2-||-3-2---2-2-2---3-2-|-3-2----------|-3-2-----------|
        E E E S E S E E E    E E E S E S E E E   E E E E E Q.   E E E E E Q.

I think Head plays it this way and I think Munky plays it at the same time like this:
  
                            3x
    D|------20-------20-----||-----19-------20-----|
    A|----------------------||---------------------|
    F|----------------------||---------------------|
    C|----------------------||---------------------|
    G|----------------------||---------------------|
    D|--5-4----4-4-4----5-4-||-5-4----4-4-4----5-4-|
    A|--3-2----2-2-2----3-2-||-3-2----2-2-2----3-2-|
        E E E  S E S E  E E    E E E  S E S E  E E

If you play Heads part right it should sound just like Munky's so it doesn't matter. 

Key:
W - Whole Note
H - Half Note
Q - Quarter Note
E - Eigth Note
S - Sixteenth Note
. - Dotted Note
* - Harmonics
~ - Linked Note 
% - Rest


Текст, аккорды и табулатура для песни "Good God", исполняет "Korn".
Используемые в песне аккорды можно найти в разделе Как брать аккорды. Аккорды для шестиструнной гитары. Другие песни можно найти на нашем сайте, воспользовавшись алфавитным указателем вверху страницы.


 
Ошибка в тексте? Выделите ошибку и нажмите Ctrl+Enter