|-------------------------------------|
|-------------------------------------|
|-------------------------------------|
|-------------------------------------|
|---3-4----3-2---3-4-2-5-2------------|
|-0------0-----0----------------------|

|-------------------------------------|
|-------------------------------------|
|-------------------------------------|
|-------------------------------------|
|---3-4----3-2---3-4-2-5-2------------|
|-0------0-----0----------------------|

|-------------------------------------|
|-------------------------------------|
|-------------------------------------|
|-------------------------------------|
|---3-4----3-2---3-4-2-5-2------------|
|-0------0-----0----------------------|


Текст, аккорды и табулатура для песни "Everything Ive Known", исполняет "Korn".
Используемые в песне аккорды можно найти в разделе Как брать аккорды. Аккорды для шестиструнной гитары. Другие песни можно найти на нашем сайте, воспользовавшись алфавитным указателем вверху страницы.


 
Ошибка в тексте? Выделите ошибку и нажмите Ctrl+Enter