Blind by KoRn
Guitars: Munky and Head
Tabbed by: Tim Lindberg
[email protected]
Tuning: A D G C F A D
(7 String one step down)

Intro:
Munky
{Clean Guitar}
D-----------------------------|-----------------------------|
A--6-6-6-6--------------------|--6-6-6-6--------------------|
F--5-5-5-5--------------------|--5-5-5-5--------------------|
C--3-3-3-3--------------------|--3-3-3-3--------------------|
G-----------------------------|-----------------------------|
D-----------------------------|-----------------------------|
A-----------------------------|-----------------------------|

Intro:
Head -part 1
{Heavy Distorted}
D-----------------------------|-----------------------------|
A-----------------------------|-----------------------------|
F-----------------------------|-----------------------------|
C-----------------------------|-----------------------------|
G-----------------------------|-----------------------------|
D----------0--14--0--15-------|----------0--14--0--15-------|
A----------0--14--0--15-------|----------0--14--0--15-------|
p.m.         _      _                      _      _

Intro: 
Head -part 2
{Heavy Distorted}
D-----------------------------|-----------------------------|
A-----------------------------|-----------------------------|
F-----------------------------|-----------------------------|
C-----------------------------|-----------------------------|
G-----------------------------|-----------------------------|
D-----------------------------|-----------------------------|
A----------0---2---0---3------|----------0---2---0---3------|

Intro:
Head -part 3
D-----------------------------|-----------------------------|
A-----------------------------|-----------------------------|
F-----------------------------|-----------------------------|
C-----------------------------|-----------------------------|
G-----------------------------|-----------------------------|
D-----------------------------|-----------------------------|
A----------0-2-0-3-0-2-0-3----|----------0-2-0-3-0-2-0-3----|

Heavy Part:
Both
{Heavy Distorted}
D-----------------------------|-----------------------------|
A-----------------------------|-----------------------------|
F-----------------------------|-----------------------------|
C-----------------------------|-----------------------------|
G-----------------------------|-----------------------------|
D---4---5---4---5-8-8-8-8-----|---4---5---4---5-8-8-8-8-----|
A-0-2-0-3-0-2-0-3-6-6-6-6-----|-0-2-0-3-0-2-0-3-6-6-6-6-----|

Verse
Munky
Lots of reverb
D-----------------------------|-----------------------------|
A-----------------------------|-----------------------------|
F-----------------------------|-----------------------------|
C-14-----------15-------------|-14-----------12-------------|
G--x----8x------x----8x-------|--x----8x------x----8x-------|
D-12-----------13-------------|-12-----------10-------------|
A-----------------------------|-----------------------------|

Verse
Head
Phaser and lots of reverb
D-----------------------------|-----------------------------|
A-----------------------------|-----------------------------|
F-----------------------------|-----------------------------|
C-----------------------------|-----------------------------|
G-----------------------------|-----------------------------|
D-7-------------8-------------|-7-------------8-------------|
A-5--~~~~~~-----6--~~~~~~-----|-5--~~~~~~-----6--~~~~~~-----|

Verse Bridge
Head
Distorted
D-----------------------------|-----------------------------|
A-----------------------------|-----------------------------|
F-----------------------------|-----------------------------|
C-----------------------------|-----------------------------|
G-----------------------------|---------------8-------------|
D--7-75/7-7-7--8-------------|--7-75/7-7-7--6-------------|
A--5-53/5-5-5--6-------------|--5-53/5-5-5----------------|
p.m. _       ___                   _       ___

Interlude
Part 1
Head
D-----------------------------|-----------------------------|
A-----------------------------|-----------------------------|
F---0-------------------------|---0-------------------------|
C---0-------------------------|---0-------------------------|
G--14----/-17--14------------|--14----/-17--14------------|
D--12----/-15--12------------|--12----/-15--12------------|
A-----------------------------|-----------------------------|

Interlude Breakdown
(i can see, i can see)
Both
Heavy Distortion
D-----------------------------|-----------------------------|
A-----------------------------|-----------------------------|
F-----------------------------|-----------------------------|
C-----------------------------|-----------------------------|
G-----------------------------|-----------------------------|
D--7--------7-8--------8------|--7--------7-8--------8------|
A--5--------5-6--------6------|--5--------5-6--------6------|


thats all the parts, enjoy


Текст, аккорды и табулатура для песни "Blind Live", исполняет "Korn".
Используемые в песне аккорды можно найти в разделе Как брать аккорды. Аккорды для шестиструнной гитары. Другие песни можно найти на нашем сайте, воспользовавшись алфавитным указателем вверху страницы.


 
Ошибка в тексте? Выделите ошибку и нажмите Ctrl+Enter