Основная тема:
Riff A
1)-----------------------------0-
2)-3-3-3-1-0-1-----3-3-3-1-0-1---
3)-------------2-----------------
4)-------------------------------
5)-------------------------------
6)-------------------------------
Riff B
1)------------------------
2)-----1---1------------3-
3)---2-------2--------4---
4)-3-----------3----5-----
5)------------------------
6)------------------------   
Riff C
1)-----0-1-0---0-1---0---0-1-0---0-1-
2)-1-3-------3---------3-------3-----
3)-----------------------------------
4)-----------------------------------
5)-----------------------------------
6)-----------------------------------

    Am  (Riff A)
Здравствуй, небо в облаках,
Здравствуй, юность в сапогах!
Пропади, моя тоска,
Вот он я, привет, войска!
 F(Riff B)
Эх, рельсы-поезда,
         G
Как я попал сюда?

(Riff C)  C             Em
Здесь не то что на гражданке,
	      Am             F
На какой-нибудь гражданке,
	          C          Em
Жизнь снаружи и с изнанки
	        Am       F
Сам попробуй изучи.
	       Am(Riff A)
Для печали нет причин.

Непросто быть собой,
Когда шагает строй.

Только сердце птицей бьется,
И ликует, и смеется,
И ему не удается
Под конвоем петь в груди.
Знать бы, что там впереди.

	  C  Em   Dm
Где-то течет река,
	        Am            G         F
Где-то дом, где все ждут нас назад.
Это не грусть слегка,
Просто ветер щекочет глаза.

Где-то течет река,
Где-то дом, где все ждут нас назад.
Это не грусть слегка,
Просто ветер щекочет глаза.

Шаг вперед и два назад,
Кто бы знал, чему я рад?
Просто сбросил я печаль
Словно голову с плеча.

На стыках рельсов путь,
Виски вбивает пульс.

Ты поймешь, как будет нужно,
Где предательство, где дружба,
Где карьера, а где служба,
И как сердце безоружно,

Как обманчива наружность,
Сколько звезд и сколько лычек,
Сколько лиц, личин, опричей,
И как мало в нас различий.

p.s. Всем поклонникам т/с "Солдаты" посвящается.

Короткая тема промелькивающая минимум 5 раз на серию.
       Am                         C
1)------0.------0.-----0.----------0.-----0.-----0.-----
2)----1---1-------1------1-------1---1------1------1----
3)--2.------2-------2------2.--0.------0------0------0.-
4)------------------------------------------------------
5)------------------------------------------------------
6)------------------------------------------------------
      F                          E
1)------1.------1.-----1.----------0.-----0.-----0.-----
2)----1---1-------1------1-------0---0------0------0----
3)--2.------2-------2------2.--1.------1------1------1.-
4)------------------------------------------------------
5)------------------------------------------------------
6)------------------------------------------------------
Ноты с точкой должны звучать чуть дольше остальных. И на
них нужно делать небольшой акцент, тобиш ударение.
	
	
	        
Комментарий автора: Рифи в скобках это как бы дополнительное соло к ритм гитаре, которая играет обычные аккорды.

Текст, аккорды и табулатура для песни "Юность в сапогах", исполняет "Конец Фильма".
Используемые в песне аккорды можно найти в разделе Как брать аккорды. Аккорды для шестиструнной гитары. Другие песни можно найти на нашем сайте, воспользовавшись алфавитным указателем вверху страницы.


 
Ошибка в тексте? Выделите ошибку и нажмите Ctrl+Enter