Am             C           D            F
||----------0-----------0-----------2^3-----------1------|
||--------1-----------1-----------3-----3-------1---1----|
||------2-----------0-----------2---------2---2-------2--|
----2-0--------------------------|
||--0-0-------0-2-3-------3------------------------------|
--------------------1------------|
   Постой     паравоз     не стучите        колеса

   Am            C           E
|-------0-----------0-----------0------------0------|
|-----1---1-------1---1-------0---0--------0---0----|
|---2-------2---0-------0---1-------1----1-------1--|
----------------------------------------|
|-0-----------3-------------------------------------|
--------------0------------0------------|
  Кондуктор   нажми на тормоза

   Am            C            D             F          Am
|-------0-----------0------------2^3-----------1------------0------------0------------0--||
|-----1---1-------1---1--------3-----3-------1---1--------1---1--------0---0--------1----||
|---2-------2---0-------0----2---------2---2-------2----2-------2----1-------1----2------||
---------------0-------------------------------------------------------------|| и т.д.
|-0-----------3---------------------------------------0-------------------------0--------||
-----------------------------1-------------------------0---------------------||
  Я к маминке родной       с последним   приветом      спешу    показаться  на глаза



Постой, паровоз, не стучите, колеса,
Кондуктор, нажми на тормоза.
Я к маменьке родной с последним приветом
Спешу показаться на глаза.
 
Не жди (не жди) меня, мама, хорошего сына,
Твой сын не такой, как был вчера.
Меня засосала опасная трясина,
И жизнь моя - сущая игра.

А если я сяду в тюрьму, за решетку,
Я буду страдать и умирать.
И ты не придешь ко мне, мать моя родная,
Меня обнять, поцеловать

Постой, паровоз, не стучите, колеса,
Есть время взглянуть судьбе в глаза.
Пока еще не поздно нам сделать остановку.
Кондуктор, нажми на тормоза.


Текст, аккорды и табулатура для песни "Постой, паровоз", исполняет "Конец Фильма".
Используемые в песне аккорды можно найти в разделе Как брать аккорды. Аккорды для шестиструнной гитары. Другие песни можно найти на нашем сайте, воспользовавшись алфавитным указателем вверху страницы.


 
Ошибка в тексте? Выделите ошибку и нажмите Ctrl+Enter