Happy: kNoRRiG 

INTRO 
D                      G 
The sun, oh how it's shining 
D                      G 
and the clouds, they're all fluffy 
D                      G 
and the smiles on peoples faces 
A 
well they just keep on growing....... 


(hey hey hey hey.........hey hey hey hey) 
E---4----4----4----------4----4----4------- 
B---4----4----4h6--------4----4----4h6----- 
G---5----5----5h6--------5----5----5h6----- 
D------------------------------------------ 
A------------------------------------------ 
E------------------------------------------ 

VERSE 1 (ska chords) 
G# 
sun is shining bright 
C# 
with its warm yellow light 
G# 
as the comforting rays hit me 
C#  D# 
i know I'm gonna be..... 

CHORUS (power chords, slightly heavier) 

G#                      C#   D# 
Happy, 'cause it's summer 
G#                      C#         D# 
As long as I'm with my friends, nothing is funner 
G#                       C# 
As long as I'm with my friends, 
D# 
Ill be happy 'till the end...  G# C# D# 

VERSE 2 (same as verse1) 

schools out for summer 
nothing could be better 
its like a non stop party 
everything around is gnarly, 'cause I'm.... 


CHORUS 

Bridge - (no guitar to start with then solo-) (X2) 

E------4--6b8-6-4--6b8-6-4--6-4------------ 
B--4-6--------------------------6-4-------- 
G------------------------------------------              
D------------------------------------------ 
A------------------------------------------ 
E------------------------------------------ 

VERSE 3 (same as verses 1+2, but slightly slower) 

I dont want the fun to stop 
there's something in the air but I don't know what 
I forget about the work 
I forget about the pain 
I've forgotten bout everything bad 
and i dont want it to change... cos I'm.... 

CHORUS x2 to end 

kNoRRiG :) 


Текст, аккорды и табулатура для песни "Happy", исполняет "Knorrig".
Используемые в песне аккорды можно найти в разделе Как брать аккорды. Аккорды для шестиструнной гитары. Другие песни можно найти на нашем сайте, воспользовавшись алфавитным указателем вверху страницы.


 
Ошибка в тексте? Выделите ошибку и нажмите Ctrl+Enter