title-blame
artist-kmfdm
album-xtort
tabbed by-bobby siegfried
type-bass tablature
send comments, corrections, tabs to: [email protected]

MAIN RIFF 8x                       1x
G| ------------------------------ |--------------------|
D|.------------------------------.|-0------------------|
A|.--------------2-0-0-----------.|-----------3--------|
E| -0--0-0-3-3-0-------3-3-0-0-3- |-------3--------1-1-|

VERSE 4x
G| ----------------------------------------- |
D|.-----------------------------------------.|
A|.-----------------------------------------.|
E| -3-00-3-00------0-0-3-00-3-00---3-3-3-00- | 

CHORUS 2x
G| -------------------------------- |
D|.--------------------------------.|
A|.---2---1---0------2---1---0-----.|
E| -03--03--03-303-03--03--03-3030- |

MAIN RIFF
(GUITAR SOLO/DRUMS)
VERSE
MAIN RIFF
(GUITAR SOLO/DRUMS)
CHORUS
MAIN RIFF 2x

BRIDGE
G|---------------------------|
D|---------------------------|
A|--------------75----5---0--|
E|-0-003300--030--0-00--00-0-|


Текст, аккорды и табулатура для песни "Blame", исполняет "Kmfdm".
Используемые в песне аккорды можно найти в разделе Как брать аккорды. Аккорды для шестиструнной гитары. Другие песни можно найти на нашем сайте, воспользовавшись алфавитным указателем вверху страницы.


 
Ошибка в тексте? Выделите ошибку и нажмите Ctrl+Enter