http://www.klank.net

Band: Klank
Song: Time

Tabber: John Cukras
Email: [email protected]

Tuning: Drop D

Riff 1:
E--------------------------------------------
B--------------------------------------------
G--------------------------------------------
D--------------------------------------------
A-1-3-1-2----2-1-3-1-2----2-1-3-1-222-333-5--
D-1-3-1-2-00-2-1-3-1-2-00-2-1-3-1------------
pm        ..           ..

Riff 2: Periodic chords along with clean melody
E--------------------------------------------------------------------------------------------------------------
B--------6------------6------------8-----------6------------6------------6------------8---------------10-------
G------5---5---5----5---5---5----7---7---7---5---5---5----5---5---5----5---5---5----7---7---7-------9----9---9-
D----3-------3----3-------3----5-------5---3-------3----3-------3----3-------3----5-------5-------7--------7---
A-1------------------------------------------------------------------------------------------------------------
D-1------------------------------------------------------------------------------------------------------------
                                                                                              (periodically)

Riff 3: 10's
E--------------------------
B--------------------------
G--------------------------
D--------------------------
A-3-2-5-4---77-9-7/9-1010--
D-3-2-5-4---77-9-7/9-1010--


Текст, аккорды и табулатура для песни "Time", исполняет "Klank".
Используемые в песне аккорды можно найти в разделе Как брать аккорды. Аккорды для шестиструнной гитары. Другие песни можно найти на нашем сайте, воспользовавшись алфавитным указателем вверху страницы.


Слушать онлайн Time


KlankTime на Яндекс.Музыке


 
Ошибка в тексте? Выделите ошибку и нажмите Ctrl+Enter