http://www.klank.net

Klank - Scarified
Submitted By: Schecter Man

Tabber: John Cukras
Email: [email protected]

Tuning: C G C F A D

Intro:
C---------------------
G-00-0000-1-00-0000-1-
C-00-0000-1-00-0000-1-
pm.. ....   .. ....

Riff 1: 
C-3-6-10---------------------
G-3-6-10-2/3-00000-2/3-00000-
C-3-6-10-2/3-00000-2/3-00000-
pm           .....     .....

Riff 2:
C---------------------------
G-2/3-00-0-2/3-00-0---------
C-2/3-00-0-2/3-00-0-6-5-0-3-
pm    .. .     .. .

Riff 3:
C-----------------------------
G-2/3-000-2/3-000-2/3-000-5-6-
C-2/3-000-2/3-000-2/3-000-5-6-
pm    ...     ...     ...

Riff 4:
C-----------------------------------
G-0-000-3-000-0-000-3-000-6/5/6-3/5-
C-0-000-3-000-0-000-3-000-6/5/6-3/5-
pm  ...   ...   ...   ...

Riff 4:
C-------------------------------------
G-0-0-3-0-0-3-0-0-3-0-0-3-0-6/5/6-3/5-
C-0-0-3-0-0-3-0-0-3-0-0-3-0-6/5/6-3/5-


Текст, аккорды и табулатура для песни "Scarified", исполняет "Klank".
Используемые в песне аккорды можно найти в разделе Как брать аккорды. Аккорды для шестиструнной гитары. Другие песни можно найти на нашем сайте, воспользовавшись алфавитным указателем вверху страницы.


Слушать онлайн Scarified


KlankScarified на Яндекс.Музыке


 
Ошибка в тексте? Выделите ошибку и нажмите Ctrl+Enter