Klank - Fall
Submitted By: Schecter Man

Tabber: John Cukras
Email: [email protected]

Tuning: Normal

Riff 1:
E---------------------------------------
B---------------------------------------
G---------------------------------------
D---------------------------------------
A-9-9/7-9/7-9-9/7-9/7-9-9/7-9/7-7777-55-
E-9-9/7-9/7-9-9/7-9/7-9-9/7-9/7-7777-55-

Riff 2:
E------------------------------------
B------------------------------------
G-5-3-2------------------------------
D-------3----------------------------
A--------------5/6-----5/6-----5/6-7-
E----------000-5/6-000-5/6-000-5/6-7-
pm         ...     ...     ...

(during the little solo thing, riff 1 is played underneath it)

Solo:
E----------------------------------------------------------------------------------------------------------
B-1111111-777777-111111-999999-101010101010/1111111/1212121212/131313/141414/1515-555-7^777777-555-9^99999- (repeat few times,
G---------------------------------------------------------------------------------------------------------- then do slide 10-15
D----------------------------------------------------------------------------------------------------------  again)
A----------------------------------------------------------------------------------------------------------
E----------------------------------------------------------------------------------------------------------

Riff 3:
E-------------------------------------------------
B-------------------------------------------------
G-------------------------------------------------
D-------------------------------------------------
A-1111-11/9--9/11-11/9-9999-1111-11/9-99--9/9--10-
E-9-9--9/-7--7/9--9/-7-7777-9-9--9/-7-77-11/11-12-


Текст, аккорды и табулатура для песни "Fall", исполняет "Klank".
Используемые в песне аккорды можно найти в разделе Как брать аккорды. Аккорды для шестиструнной гитары. Другие песни можно найти на нашем сайте, воспользовавшись алфавитным указателем вверху страницы.


Слушать онлайн Fall


KlankFall на Яндекс.Музыке


 
Ошибка в тексте? Выделите ошибку и нажмите Ctrl+Enter