http://www.klank.net

Klank - Downside
Submitted By: Schecter Man

Tabber: John Cukras
Email: [email protected]

Tuning: Normal

Riff 1:
e---------------------------------
B---------------------------------
G---------------------------------
D---------------------------------
A--00-0-0--00-0-0--00-0-0--00-0-0-
E--00-0-0--00-0-0--00-0-0--00-0-0-
pm .. . .  .. . .  .. . .  .. . .

Riff 2:
e-----------------
B-----------------
G-----------------
D--5/7------------
A--3/5---6--5--3--
E--------6--5--3--

Riff 3:
e-------------------------------------------
B-------------------------------------------
G-------------------------------------------
D-------------------------------------------
A-222-222-222-222-6-5-222-222-222-222-3-1---
E-222-222-222-222-6-5-222-222-222-222-3-1---

Riff 4:
e-------------------------------------------
B-------------------------------------------
G-------------------------------------------
D-------------------------------------------
A--000--6-5-4-3--------000--6-5--2222-6666--
E--000-----------4-3-2-000-------2222-6666--

Riff 5: (does this a couple times)
e-------------------------------------------
B-------------------------------------------
G-------------------------------------------
D-------------------------------------------
A--000--8-7-6-5--------000--8-7--2222-6666--
E--000-----------4-3-2-000-------2222-6666--

I found a longer version of this song, it is the same thing.
It just plays riff 1 hordes.


Текст, аккорды и табулатура для песни "Downside", исполняет "Klank".
Используемые в песне аккорды можно найти в разделе Как брать аккорды. Аккорды для шестиструнной гитары. Другие песни можно найти на нашем сайте, воспользовавшись алфавитным указателем вверху страницы.


Слушать онлайн Downside


KlankDownside на Яндекс.Музыке


 
Ошибка в тексте? Выделите ошибку и нажмите Ctrl+Enter