http://www.klank.net

Klank - Deceived
Submitted By: Schecter Man

Tabber: John Cukras
Emai: [email protected]

Tuning: Normal

Riff 1:
E----------------------------
B----------------------------
G----------------------------
D---2222-----2222-2---5---4--
A---2222-----2222-2---3---2--
E-4-0000---4-0000-0-4---4----

Riff 2:
E--------------------
B--------------------
G--------------------
D---5---5---4---4----  (during that weird interlude, someone tabs that let me have! :) )
A---3---3---2---2----
E-4---4---4---4------

Riff 3:
E----------------------------------------
B----------------------------------------
G----------------------------------------
D----------------------------------------
A------3----4----5/7/5------3-7/9/5----4-
E-0-00-1-00-2-00-3/5/3-0-00-1-5/7/3-00-2-
pm. ..   ..   ..       . ..         ..

Riff 4:
E--------------------------------------------------------------------------------------------
B--------------------------------------------------------------------------------------------
G-----5---------5----------5-----------------------5---------5--------5----------------------
D-2---------2---------2----------------------------------------------------------------------
A-2-2---2-4-2-2---2-4-2-2----2--4--2-3-5-3-1-2--2----2-4--2----2-4--2---2-4--2-3-5-3-1-2(22)-
E-0---------0---------0------------2-3-5-3-1-2-------------------------------2-3-5-3-1-2(22)-

Riff 5:
E----------
B----------
G----------
D----------
A-5-4-3----
E-3-2-1----

Riff 6:
E------------------------------
B------------------------------
G------------------------------
D------55-555-----55-5-5-7-8---
A------33-333-----33-3-3-5-6---
E-000---------000--------------
pm...         ...


Текст, аккорды и табулатура для песни "Deceived", исполняет "Klank".
Используемые в песне аккорды можно найти в разделе Как брать аккорды. Аккорды для шестиструнной гитары. Другие песни можно найти на нашем сайте, воспользовавшись алфавитным указателем вверху страницы.


Слушать онлайн Deceived


KlankDeceived на Яндекс.Музыке


 
Ошибка в тексте? Выделите ошибку и нажмите Ctrl+Enter