http://www.klank.net/

They don't exist anymore :(, but they're real!

Klank - Animosity
Submitted By: Schecter Man

Tabber: John Cukras
Email: [email protected]

There is a remix of this song, but it is nothing like this version.
It contains no guitar at all and is about 3 minutes longer.

Tuning: Normal

Riff 1: 
E--------------------------------------------------
B--------------------------------------------------
G----------------------------------------4---------
D--------------------------------------3---5-------
A-------3/2-------33-5-------3/2-------------33-5--
E-00000-3/2-00000-33-5-00000-3/2-00000-------------
pm.....     .....      .....     .....            

Riff 2:
E------------------------------------------------------------------------------
B------------------------------------------------------------------------------
G------------------------------------------------------------------------------
D------------------------------------------------------------------------------
A-------------2-2/3--------------2-2/3-------------2-2/3-------------6----55-3-
E-00000-00000-2-2/3-00000--00000-2-2/3-00000-00000-2-2/3-00000-00000-6-00-55-3-
pm..... .....       .....  .....       ..... .....       ..... .....   ..

Riff 3:
E----------------------------------------------------------------------------------------
B----------------------------------------------------------------------------------------
G----------------------------------------------------------------------------------------
D--------5/3-3-4-5---------5/3-3-4-5-------5/3-3-4-5----------5/3-3-4-5------------------
A--------3/1-1-2-3---------3/1-1-2-3-------3/1-1-2-3----------3/1-1-2-3-------6----5-3---
E-00000------------000000------------00000------------000000------------00000-6-00-5-3---
pm.....            ......            .....            ......            .....   ..

Riff 4:
E-------------------------------------
B-------------------------------------
G-------------------------------------
D-3-------5---------------------------
A-1-2-2/3-3--------------------2-2/3--
E---2-2/3--------00000--000000-2-2/3--
pm               .....  ......

Riff 5:
E-----------------------------------------------
B-----------------------------------------------
G-----------------------------------------------
D-----------------------------------------------
A-1------1-------1-------2-2/3--------6----55-3-
E-1-0000-1-00000-1-0000--2-2/3--------6-00-55-3-
pm  ....   .....   ....                 ..

Riff 6:
E--------------------
B--------------------
G--------------------
D------33-------5/3--
A------11-------3/1--
E-0000----00000------
pm....    .....

Leet song!


Текст, аккорды и табулатура для песни "Animosity", исполняет "Klank".
Используемые в песне аккорды можно найти в разделе Как брать аккорды. Аккорды для шестиструнной гитары. Другие песни можно найти на нашем сайте, воспользовавшись алфавитным указателем вверху страницы.


Слушать онлайн Animosity


KlankAnimosity на Яндекс.Музыке


 
Ошибка в тексте? Выделите ошибку и нажмите Ctrl+Enter