WHAT I ALWAYS WANTED- KITTIE

Tabbed by: Julio Montanez ([email protected])
 

Intro

d|--------------------------------------------------------------------|
A|--------------------------------------------------------------------|
F|--------------------------------------------------------------------|
C|-3--3---4-4--0—-1---3-—3---4-4—-0—-1---3—-3---3--3---4-4--0--1------|
G|-3--3---4-4--0--1---3--3---4-4--0--1---3—-3—--3--3---4-4--0--1------|
C|-3--3---4-4--0--1---3--3---4-4--0--1---3—-3---3--3---4-4--0--1------|

Verse/Chorus

d|--------------------------------------------------------------------|
A|--------------------------------------------------------------------|
F|--------------------------------------------------------------------|
C|--4-4-4-4-4-4-4-4-4-4-4-4-4-4-4-0-3-3-3-3-3-3-3-3-3-3-3-3-3-3-3-----|
G|--4-4-4-4-4-4-4-4-4-4-4-4-4-4-4-0-3-3-3-3-3-3-3-3-3-3-3-3-3-3-3-----|
C|--4-4-4-4-4-4-4-4-4-4-4-4-4-4-4-0-3-3-3-3-3-3-3-3-3-3-3-3-3-3-3-----| 

Bridge

d|--------------------------------------------------------------------|
A|--------------------------------------------------------------------|
F|--------------------------------------------------------------------|
C|-3/4--0-0--1-0--3/4--0-0--1-0--3/4------------------3/4-------------|
G|-3/4--0-0--1-0--3/4--0-0--1-0--3/4------------------3/4-------------|
C|-3/4--0-0--1-0--3/4--0-0--1-0--3/4-0-0-0-0-1-1-0-0--3/4-0-0-0-0-1-1-|

d|--------------------------------------------------------------------|
A|--------------------------------------------------------------------|
F|--------------------------------------------------------------------|
C|--------------------------------------------------------------------|
G|--------------------------------------------------------------------|
C|-0-0----------------------------------------------------------------|

|==================================================================== |



Текст, аккорды и табулатура для песни "What I Always Wanted", исполняет "Kittie".
Используемые в песне аккорды можно найти в разделе Как брать аккорды. Аккорды для шестиструнной гитары. Другие песни можно найти на нашем сайте, воспользовавшись алфавитным указателем вверху страницы.


 
Ошибка в тексте? Выделите ошибку и нажмите Ctrl+Enter