Artist: KiTTiE
Song: Trippin'
Album: SPiT
Tabbed By: Audrina ([email protected])

Tuning: C (Low to High: CGCF)


Intro: x4

F|------------------
C|------------------
G|------------------
C|--00-0-12--00-0-13

On the 4th time let 13 ring a little bit longer.


Verse: x8

F|
C|
G|
C|--*13*--0-0--0-5h7-0--8-9

** First time only.


Chorus: x2

F|------------------------------------------
C|------------------------------------------
G|------------------------------------------
C|--07-07-07-07-8888-07-07-07-07--8--8--8---


Bridge:

F|
C|
G|
C|--*0~*---0---0---0---0-0-0-0

** First time only. When Morgan starts singing, just speed it up. This song is 
really fun to play and I hope you think it's rad, too.


Текст, аккорды и табулатура для песни "Trippin", исполняет "Kittie".
Используемые в песне аккорды можно найти в разделе Как брать аккорды. Аккорды для шестиструнной гитары. Другие песни можно найти на нашем сайте, воспользовавшись алфавитным указателем вверху страницы.


 
Ошибка в тексте? Выделите ошибку и нажмите Ctrl+Enter