Прежде чем играть Kittie настройте ваш инструмент таким образом: 1-я струна: D, 2-ая: A, 
3-я: F, 4-я: C, 5-я: G, 6-я: C. Для тех, кто не понимает о чем идет речь, состройте 
четвертую и шестую струны (просто спустите шестую).

Clean                                                   3x
D-------------------------------------------------------|
A-------------------------------------------------------|
F---------------------------------5-----4-----4---------|
C---------4-----5-----5-----4-----------------------4---|
G---0--2-----2-----2-----2-----2-----2-----2-----2------|
C-------------------------------------------------------|


                                  3x
D---------------------------------|
A---------------------------------|
F---------------------------------|
C---0---0--4-4-3-0-2------2-----2-|
G---0---0--4-4-3-0-2--------------|
C---0---0--4-4-3-0-2---2-----2----|

                                                                3x
D---------------------------------------------------------------|
A---------------------------------------------------------------|
F-------7----7--7----7----7--7----7----7----7/10-----10--10--10-|
C-----7----7--7-----7----7--7----7----7-7---7/10--10---10--10---|
G---5----5---------5----5-------5----5------5/8-----8-----------|
C---------------------------------------------------------------|

Distortion                            6x
D-------------------------------------|
A-------------------------------------|
F-------------------------------------|
C---0--3-0-4-3-0-3-4-0-4-3-0-0----0---|
G---0--3-0-4-3-0-3-4-0-4-3-0-0----0---|
C---0--3-0-4-3-0-3-4-0-4-3-0-0----0---|

Clean
D-----------------------------------------------------------|
A-----------------------------------------------------------|
F-------------------5-5-5-4---------------------5---5---4---|
C-4-4-4-5---5-5-4---4-4-4-4---4-4-4-5---5-5-4---4---4---4---|
G-2-2-2-2---2-2-2---2-2-2-2---2-2-2-2---2-2-2---2---2---2---|
C-----------------------------------------------------------|


Текст, аккорды и табулатура для песни "Immortal", исполняет "Kittie".
Используемые в песне аккорды можно найти в разделе Как брать аккорды. Аккорды для шестиструнной гитары. Другие песни можно найти на нашем сайте, воспользовавшись алфавитным указателем вверху страницы.


 
Ошибка в тексте? Выделите ошибку и нажмите Ctrl+Enter