Artist-KISS
          Song-Rock n'Roll All Nite

          Verse
          G---------------------------------------------------
          D---------------------------------------------------
          A-------------------6-6-6-6-6-6-6-6-----------------
          E---4-4-4-4-4-4-4-4-----------------4-4-4-4-4-4-4-4-

          G---------------------------------------------------
          D---------------------------------------------------
          A-6-6-6-6-6-6-6-6-4-4-4-4-4-4-4-4-6-6-6-6-6-6-6-6---

          G---------------------------------------------------
          D---3h4-3h4-3-4-4-3---------------------------------
          A---------------------------------------------------
          E---------------------------------------------------
          Prechorus
          G---------------------------------------------------
          D---3h4-3h4-3-4-4-3---2----------4------------------
          A---------------------------------------------------
          E---------------------------------------------------
          Chorus
          G---------------------------------------------------
          D---------------------------------------------------
          A----------------------------------3-3-3-3-3-3-3-3--
          E--3-3-3-3-3-3-3-3-3-3-3-3-3-3-3-3------------------

          G---------------------------------------------------
          D---------------------------------------------------
          A-5-5-5-5-5-5-5-5-----------------------------------
          E---------------------------------------------------


Текст, аккорды и табулатура для песни "Rock N Roll All Nite", исполняет "Kiss".
Используемые в песне аккорды можно найти в разделе Как брать аккорды. Аккорды для шестиструнной гитары. Другие песни можно найти на нашем сайте, воспользовавшись алфавитным указателем вверху страницы.


Слушать онлайн Rock And Roll All Nite


KissRock And Roll All Nite на Яндекс.Музыке


 
Ошибка в тексте? Выделите ошибку и нажмите Ctrl+Enter