Tune down half step      kiss symphony


             intro                4x                     8x     10x
e-------------------------|-----------------|----------|---5-|-------|
b-2-------2--2------------|-2-----2---------|----------|--5--|-------|
g-2-------2--2------------|-2-----2-2-------|-8~~~~~~~-|-7^--|-5h7r5-|
d-2-------2--2------------|-2-----2-2-------|----------|-----|-------|
a-0-0-3-0-0--0-0-3-4-3~~~-|-0-0-3-0-0-0-3-4-|----------|-----|-------|
E-------------------------|-----------------|----------|-----|-------|


 [     4x ]                 [       2x          ]
e---x--x-x-------------------15-------14---14-14---------------------------|
b-2-x--x-x---------------------15/14----14---------------------------------|
g-2-x--x-x-4^4^2h4r2h4-2---2-----------------------2---2-4^4^2h4r2h4r2--2-~|
d-2-x--x-x---------------4----------------------------4-----------------4--|
a-0-x--x-x-----------------------------------------------------------------|
E---x--x-x-----------------------------------------------------------------|

               [ 4x ]                     4x
e--------------|-----|----17--------|-----17---17h20r17h20-17-------------|
b-8-7-6-8-10-/-|-20^-|-17----20^r17-|-17----17----------------20-17h20-17-|
g-7-7-5-7--9-/-|-----|-19^----------|-19^---------------------------------|
d-5-5-3-5--7-/-|-----|--------------|-------------------------------------|
a--------------|-----|--------------|-------------------------------------|
E--------------|-----|--------------|-------------------------------------|


                                             [   4x   ]
e-----------------------------------------------x--x-x---------------------|
b---------------------------------------------2-x--x-x---------------------|
g-19-17h19r17--------17----------17-----------2-x--x-x--4^4^-2h4r2h4r2---2~|
d-------------19^-17----17-19-17----17-19-19--2-x--x-x-----------------4---|
a---------------------------------------------0-x--x-x---------------------|
E-----------------------------------------------x--x-x---------------------|


          2x
e-15------14----14-14-----------------------------------------15^15^15^15~-|
b---15/14----14-------------------------------------8-7-6-8-10-------------|
g------------------------2---2-4^4^2h4r2h4r2---2~~--7-7-5-7--9-------------|
d----------------------4---4-----------------4------5-5-3-5--7-------------|
a--------------------------------------------------------------------------|
E--------------------------------------------------------------------------|


 solo
  4x                                  4x
e---5-|-----------------------------|---5-|----------------------------------|
b-5-5-|--------------5/-------------|-5-5-|-------------5/--------------1010-|
g-7^--|-7^7r-5h7r5---5/-------------|-7^--|-7^7r-5h7r5--5/------------/11----|
d-----|------------7----7-5---------|-----|-----------7----7-5---------------|
a-----|---------------------7-6-5-3~|-----|--------------------7-6-5-3~------|
E-----|-----------------------------|-----|----------------------------------|

                                        [  17x  ]
e------------------------12^-12-11-10-8--10^9^8^--10^10^-8h10^-10------------|
b--10-12-12^12^12r-10--10-----------------------------------------10-10^-10--|
g11------------------11------------------------------------------------------|
d----------------------------------------------------------------------------|
a----------------------------------------------------------------------------|
E----------------------------------------------------------------------------|

                              [   6x   ][   4x    ]
e------------------------------------------x--x-x-----------------------|
b-8--8-10-10-8--12^12^~~~~~SR--10h12r10--2-x--x-x-----------------------|
g--9----------9--------------------------2-x--x-x--4^4^-2h4r2h4r2---2~~-|
d----------------------------------------2-x--x-x-----------------4-----|
a----------------------------------------0-x--x-x-----------------------|
E------------------------------------------x--x-x-----------------------|


     2x                                                              10x
e-15------14----14-14-----------------------------------------------17-----|
b---15/14----14-------------------------------------8-7-6-8-10--17--20r17-|
g------------------------2---2-4^4^-2h4r2h4r2---2~~-7-7-5-7--9--19^-------|
d----------------------4---4------------------4-----5-5-3-5--7------------|
a--------------------------------------------------------------------------|
E--------------------------------------------------------------------------|


 [  12x   ][    6x    ][   10x  ]
e-17h20r17----17--------17h20r17-20^-------------20^20~~-----------20^-------|
b----------17----20r17---------------17h20r17-----------17h20r17------17h20--|
g----------19^--------------------------------19^----------------19----------|
d----------------------------------------------------------------------------|
a----------------------------------------------------------------------------|
E----------------------------------------------------------------------------|


                        [  10x   ]          [   10x     ][   4x      ]
e-------20^20~-----------17h20r17------------17h20r17-20^-------------------|
br17----------17h20r17-------------17h20r17---------------20-18-17/16-------|
g----19^---------------19---------------------------------------------------|
d---------------------------------------------------------------------------|
a---------------------------------------------------------------------------|
E---------------------------------------------------------------------------|

             [ 14x ]                              [         4x             ]
e---------------------------------------------------------------------------|
b-1716-1716---------------------------2-14-bass-14-14-15-14-15--12-7-7-8-|
g-------------5h7r5-7*^r5---------------2-14-and--14-14-14-14-14--12-7-7-7-|
d---------------------------7-5---------2-12-drum-14-14-16-14-16--12-7-7-9-|
a-------------------------------7-6-5-3-0-----solo--------------------------|
E---------------------------------------------------------------------------|

               {1,3,4}  {2}  Follow the cd for this part *
                                  *           *          8x           8x
e-------------|------------|-------------|----------|------------|-----------|
b-7-8-7-8-7-2-|10-10---10--|-------------|----------|------------|-----------|
g-7-7-7-7-7-2-|-9--9-----9-|-14-14-14-14-|-10h12r10-|-------5-7~~|---5-7-5-7-|
d-7-9-7-9-7-2-|-7--7-------|-------------|----------|-7x-5x-5----|-7-5-7-5-7-|
a-----------0-|------------|-------------|----------|------------|-7---------|
E-------------|------------|-------------|----------|------------|-----------|


 [    10x    ]                   [   3x   ]
e-20r17--------20r17--------------------------20^-17h20r17h20--------------|
b-------20r17--------17h20r17-----17h20r17--------------------17h20r17-----|
g-----------------------------19------------19-------------------------19--|
d--------------------------------------------------------------------------|
a--------------------------------------------------------------------------|
E--------------------------------------------------------------------------|


e--------------||
b-17h20r17---2-||
g---------18-2-||
d------------2-||
a------------0-||
E--------------||


h=hammer on
r=release note
^=bend up
~=vibrato
/=slide down

any questions email me at [email protected]


Текст, аккорды и табулатура для песни "Let Me Go Rock N Roll", исполняет "Kiss".
Используемые в песне аккорды можно найти в разделе Как брать аккорды. Аккорды для шестиструнной гитары. Другие песни можно найти на нашем сайте, воспользовавшись алфавитным указателем вверху страницы.


Слушать онлайн Let Me Go Rock n Roll


Ameritz Karaoke World StarsLet Me Go Rock n Roll на Яндекс.Музыке


 
Ошибка в тексте? Выделите ошибку и нажмите Ctrl+Enter