I?m A Legend Tonite- Kiss

Rhythm Fig. 1

Eb|--------------------------------------------------------|
Bb|--------------------------------------------------------|
Gb|------14--14--14--12--------14--14--14--14--14--12------|
Db|------12--12--12--12--------12--12--12--12--12--12------|
Ab|--------------------------------------------------------|
Eb|--------------------------------------------------------|

Eb|--------------------------------------------------------|
Bb|--------------------------------------------------------|
Gb|------14--14--14--12--------14--14--14--14--14--12------|
Db|------13--13--13--13--------13--13--13--13--13--13------|
Ab|--------------------------------------------------------|
Eb|--------------------------------------------------------|

Eb|--------------------------------------------------------|
Bb|--------------------------------------------------------|
Gb|------15--15--15--14--------15--15--15--15--15--14------|
Db|------15--15--15--15--------15--15--15--15--15--15------|
Ab|--------------------------------------------------------|
Eb|----------------------------------------------------15-|

Eb|--------------------------------------------------------|
Bb|--------------------------------------------------------|
Gb|------0------0------0------0-------0-----0-----0--------|
Db|--17-----15-----13-----12------10-----8-----7-----10----|
Ab|--------------------------------------------------8-----|
Eb|--------------------------------------------------------|
     Let ring - - - - - - - - - - - - - - - - - - ->


Rhythm Fig. 2

Eb|--------------------------------------------------------|
Bb|--------------------------------------------------------|
Gb|------14--14--14--12--------14--14--14--14--14--12------|
Db|------12--12--12--12--------12--12--12--12--12--12------|
Ab|--------------------------------------------------------|
Eb|--------------------------------------------------------|


Eb|--------------------------------------------------------|
Bb|--------------------------------------------------------|
Gb|------14--14--14--12--------14--14--14--14--14--12------|
Db|------13--13--13--13--------13--13--13--13--13--13------|
Ab|--------------------------------------------------------|
Eb|--------------------------------------------------------|


Eb|--------------------------------------------------------|
Bb|--------------------------------------------------------|
Gb|------15--15--15--14--------15--15--15--15--15--14------|
Db|------15--15--15--15--------15--15--15--15--15--15------|
Ab|--------------------------------------------------------|
Eb|--------------------------------------------------------|


Eb|--------------------------------------------------------|
Bb|--------------------------------------------------------|
Gb|------14--14--14--12--------14--14--14--12--------------|
Db|------12--12--12--12--------12--12--12--12--------------|
Ab|--------------------------------------------------------|
Eb|--------------------------------------------------------|

Rhythm Fig. 3

Eb|--------------------------------------------------------|
Bb|-------10----10--11~-------10----10--11~----------------|
Gb|-------10----10--12~-------10----10--12~----------------|
Db|--------------------------------------------------------|
Ab|--------------------------------------------------------|
Eb|--------------------------------------------------------|

Eb|--------------------------------------------------------|
Bb|--------------------------------------------------------|
Gb|------10----10/-12~-------10----10/-12~-----------------|
Db|------10----10/-12~-------10----10/-12~-----------------|
Ab|--------------------------------------------------------|
Eb|--------------------------------------------------------|

Rhythm Fig. 4a (let ring)

Eb|--------------------------------------------------------|
Bb|--------------------------------------------------------|
Gb|------0------0------0------0-------0-----0-----0-----0--|
Db|--17-----15-----13-----12------10-----8-----7-----------|
Ab|--------------------------------------------------8-----|
Eb|--------------------------------------------------------|

Rhythm Fig. 4b (let ring)

Eb|--------------------------------------------------------|
Bb|--------------------------------------------------------|
Gb|------0------0------0------0-------0-----0-----0--------|
Db|--17-----15-----13-----12------10-----8-----7-----10----|
Ab|--------------------------------------------------8-----|
Eb|--------------------------------------------------------|

Rhythm Fig. 4c (let ring)

Eb|--------------------------------------------------------|
Bb|--------------------------------------------------------|
Gb|------0------0------0------0----10----------------------|
Db|--17-----15-----13-----12-------10----------------------|
Ab|--------------------------------8-----------------------|
Eb|--------------------------------------------------------|


Rhythm Fig. 5a

Eb|--------------------------------------------------------|
Bb|--------------------------------------------------------|
Gb|------14--14--14--12--------14--14--14--14--14--12------|
Db|------12--12--12--12--------12--12--12--12--12--12------|
Ab|--------------------------------------------------------|
Eb|--------------------------------------------------------|

Eb|--------------------------------------------------------|
Bb|--------------------------------------------------------|
Gb|------14--14--14--12--------14--14--14--14--14--12------|
Db|------13--13--13--13--------13--13--13--13--13--13------|
Ab|--------------------------------------------------------|
Eb|--------------------------------------------------------|

Eb|--------------------------------------------------------|
Bb|--------------------------------------------------------|
Gb|------15--15--15--14--------15--15--15--15--15--14------|
Db|------15--15--15--15--------15--15--15--15--15--15------|
Ab|--------------------------------------------------------|
Eb|--------------------------------------------------------|

Eb|--------------------------------------------------------|
Bb|--------------------------------------------------------|
Gb|------14--14--14--12--------14--14--14--12--8----10-----|
Db|------12--12--12--12--------12--12--12--12--8----10-----|
Ab|--------------------------------------------------------|
Eb|--------------------------------------------------------|


Rhythm Fig. 5b

Eb|--------------------------------------------------------|
Bb|--------------------------------------------------------|
Gb|------14--14--14--12--------14--14--14--14--14--12------|
Db|------12--12--12--12--------12--12--12--12--12--12------|
Ab|--------------------------------------------------------|
Eb|--------------------------------------------------------|

Eb|--------------------------------------------------------|
Bb|--------------------------------------------------------|
Gb|------14--14--14--12--------14--14--14--14--14--12------|
Db|------13--13--13--13--------13--13--13--13--13--13------|
Ab|--------------------------------------------------------|
Eb|--------------------------------------------------------|

Eb|--------------------------------------------------------|
Bb|--------------------------------------------------------|
Gb|------15--15--15--14--------15--15--15--15--15--14------|
Db|------15--15--15--15--------15--15--15--15--15--15------|
Ab|--------------------------------------------------------|
Eb|--------------------------------------------------------|

Eb|--------------------------------------------------------|
Bb|--------------------------------10----10--11------------|
Gb|------14--14--14--12------------10----10--12------------|
Db|------12--12--12--12------------------------------------|
Ab|--------------------------------------------------------|
Eb|--------------------------------------------------------|


Rhythm Fig. 6a

Eb|--------------------------------------------------------|
Bb|--------------------------------------------------------|
Gb|--------8-----10------------8---10----------------------|
Db|--5-----8-----10-----5------8---10----------------------|
Ab|--5-----6-----8------5------6---8-----------------------|
Eb|--3------------------3----------------------------------|

Rhythm Fig. 6b

Eb|--------------------------------------------------------|
Bb|--------------------------------------------------------|
Gb|--------8-----10----------------------------------------|
Db|--5-----8-----10-----5----------------------------------|
Ab|--5-----6-----8------5----------------------------------|
Eb|--3------------------3----------------------------------|


Riff 1

Eb|--15------15------15-------15---------------------------|
Bb|--18b~----18b~----18b~-----18b~-------------------------|
Gb|--------------------------------------------------------|
Db|--------------------------------------------------------|
Ab|--------------------------------------------------------|
Eb|--------------------------------------------------------|


Solo (rhythm guitar in brackets)


Eb|--------------------------------------------------------------------------|
Bb|--11~-------------------11-----------------------------[10----10--11------|
Gb|--10~---12----10/-12----10-------12----10/-12----8-----[10----10--12------|
Db|--------12----10/-12-------------12----10/-12----8------------------------|
Ab|--------------------------------------------------------------------------|
Eb|--------------------------------------------------------------------------|


Eb|--------------------------------------------------------------------------|
Bb|--10----10--11]--------------13-------------------------------------------|
Gb|--10----10--12]-----12b----------12b~----12b--r12p10--12--12b--r12p10-----|
Db|--------------------------------------------------------------------------|
Ab|--------------------------------------------------------------------------|
Eb|--------------------------------------------------------------------------|


Eb|--------------------------------------------------------------------------|
Bb|-------[10----10--11-----10----10--11--------]----11------------------11--|
Gb|-------[10----10--12-----10----10--12--8---10]----10---12---10/-12----10--|
Db|--12~--[-------------------------------8---10]---------12---10/-12--------|
Ab|-------[-------------------------------6---8-]----------------------------|
Eb|--------------------------------------------------------------------------|


Eb|--------------------------------------------------------------------------|
Bb|------------------------------[10----10--11--------10----10--11]----------|
Gb|------12----10/-12----8-------[10----10--12--------10----10--12]----------|
Db|------12----10/-12----8---------------------------------------------------|
Ab|--------------------------------------------------------------------------|
Eb|--------------------------------------------------------------------------|


Eb|--------------------------------------------------------------------------|
Bb|--13b-r13-------------------------13b-r13---------------------------------|
Gb|----------12b-r12-10----12--10------------12b-r12-10----12b-r12p10--------|
Db|--------------------------------------------------------------------------|
Ab|--------------------------------------------------------------------------|
Eb|--------------------------------------------------------------------------|


Eb|------------------------------10--13~-------------------------------------|
Bb|----------------------13b-13------------13-13b-r13p11---------------------|
Gb|--12~---------------------------------------------------12----------------|
Db|--------------------------------------------------------------------------|
Ab|--------------------------------------------------------------------------|
Eb|--------------------------------------------------------------------------|


I'M A LEGEND TONIGHT
Mitchell, Stanley

[Intro: Rhy. Fig 1]
[Rhy. Fig 2]

[Rhy. Fig 3]
I've been working at my job, slaving like a dog all day
And I've been thinking about you, girl
And watching the minutes slip away
Yeah, and I know there's someone inside me that nobody sees

[Rhy. Fig 4a]
And I know in the darkness you're gonna be reaching for me
[Rhy. Fig 4b]

[Rhy. Fig 5a w/ Rhy. Fig 6a]
I'm a legend tonight
Gonna make you feel right
When you reach for the light
I'm a legend tonight
[Rhy. Fig 5b w/ Rhy. Fig 6b]
I'm a legend tonight
Gonna make you feel right
When you reach for the light
I'm a legend tonight

[Rhy. Fig 3]
You know they gotta slow it, sometimes I think I'm gonna stop
But I gotta keep on going, believing in Bible crop, yeah
And on the edge of the darkness we'll be living in another world

[Rhy. Fig 4a]
And I know that a part of you's gonna be part of me, girl
[Rhy. Fig 4b]

[Rhy. Fig 5a w/ Rhy. Fig 6a]
I'm a legend tonight
Gonna make you feel right
When you reach for the light
I'm a legend tonight
[Rhy. Fig 5b w/ Rhy. Fig 6b]
I'm a legend tonight
Gonna make you feel right
When you reach for the light
I'm a legend tonight
[Riff 1]
Look at me

[Solo]

[Rhy. Fig 4a]
I don't know what happens when the race is run
I don't know what tells me if I've lost or won
But I know that I'll make it through the day alright
[Rhy. Fig 4c]
And girl, you're gonna find out

[Rhy. Fig 5a w/ Rhy. Fig 6a]
I'm a legend tonight
Gonna make you feel right
When you reach for the light
I'm a legend tonight


Текст, аккорды и табулатура для песни "I M A Legend Tonight", исполняет "Kiss".
Используемые в песне аккорды можно найти в разделе Как брать аккорды. Аккорды для шестиструнной гитары. Другие песни можно найти на нашем сайте, воспользовавшись алфавитным указателем вверху страницы.


 
Ошибка в тексте? Выделите ошибку и нажмите Ctrl+Enter