ох как  запарился....

Гитара спущена на пол-тона

Вступление: 2 раза


Eb----------------------0-----3--2--3--2---|
Bb|-----3--------3--------3-------3---0----------------|
Gb|---2---2--------0------------2----------------------|
Db|-0----------0--------------0-----------2--------0---|
Ab|----------3----------2------------------------------|
Eb--------3--------------------------------|

Eb|-----0------0---------------------------------------|
Bb|-------3----1---------------------------------------|
Gb|---2--------0---------------------------------------|
Db-2---------------------------------------|
Ab-3---------------------------------------|
Eb-----------------------------------------|


1Куплет:

 так же как вступление[тоже два раза]
 а потом вот енто:
Eb-----------------0-----------0-----------|
Bb|------1----------3--------3------3----3---0---------|
Gb|----0---0------0---0----0--------2--2---------------|
Db|--2---------------------2--------0------------------|
Ab|--0----------2----------3---------------------------|
Eb-----------------------------------------|

Eb------0-------------------0--------------|
Bb|------1--------3---3-------3-------3---3------------|
Gb|----0--------0-----------0-------2------------------|
Db|--2--------------------2-------0--------------------|
Ab|--0--------2-----------3----------------------------|
Eb-----------------------------------------|


Припев:

   G  D  Em          C                   Am          D      G  D
Forever This time I know and there´s no doubt in my mind Forever

G         D             Em           C            D  C
Until my life is thru, girl I´ll be lovin´ you Forever

во время припева вторая гитара играет так:

Eb|--10-------10-10--------10-10--------10--8-7--------|
Bb|-----7--8---------7--8---------7--8----------10--8--|
Gb-----------------------------------------|
Db-----------------------------------------|
Ab-----------------------------------------|
Eb-----------------------------------------|
 
                            
Eb-3-----2-----0---|  
Bb|--7--5-5--------3-----3-----|
Gb---0-----0-----0-|
Db-----------------|
Ab-----------------|
Eb-----------------|


 Соло:

Eb10----10----10--10--10--8--7h^8p^7-------|
Bb------------------------------------10---|
Gb|---------7-----7------------------------------------|
Db-----------------------------------------|
Ab-----------------------------------------|
Eb|----0-----------------------------------------------|

Eb-----------------------------------------|
Bb|---8-7-5----5-7-7/8--5-7-7/8-5----------------------|
Gb|---------7------------------------------------------|
Db---------------------5----4-5---4--------|
Ab------------------------------7---5-73--|
Eb-----------------------------------------|

Eb-----------------------------------7-----|
Bb-----7-8-10--8-7--7h^8p^7---7-8-10----10-|
Gb|---5*----7*--------------------------9--------------|
Db|---5*----7*-----------------------------------------|
Ab-----------------------------------------|
Eb-----------------------------------------|

Eb-----------------------------------------|
Bb|--8--7h^8p^7--5--7----------------------------------|
Gb---------7/97-----7---------------------|
Db-----------------------------------------|
Ab----------------------97p^5---7--------|
Eb-----------------------------------------|

Eb|--------12-14-15--14-12-14-15-14--------------------|
Bb|-----12--------------------------12-----------------|
Gb|--12------------------------------------------------|
Db-----------------------------------------|
Ab-----------------------------------------|
Eb-----------------------------------------|

Eb|-------19-------------17------------15-----------14-|
Bb|-------20-------------19------------17-----------15-|
Gb|--16---------16---14-------14---11-------11--11-----|
Db|--17---------17---16-------16---14-------14--12-----|
Ab-----------------------------------------|
Eb-----------------------------------------|


I gotta tell you what I´m feelin´ inside, I could lie to myself, but it´s true
There´s no denying when I look in your eyes, girl I´m out of my head over you
I lived so long believin´ all love is blind
But everything about you is tellin´ me this time

It´s forever, this time I know and there´s no doubt in my mind
Forever, until my life is thru, girl I´ll be lovin´ you forever

I hear the echo of a promise I made
When you´re strong you can stand on your own
But those words grow distant as I look at your face
No, I don´t wanna go it alone
I never thought I´d lay my heart on the line
But everything about you is tellin´ me this time

I see my future when I look in your eyes
It took your love to make my heart come alive
Cos I lived my life believin´ all love is blind
But everything about you is tellin´ me this time


ну дерзайте....  KISS-RULEZzzz

 оставьте отэывы


Текст, аккорды и табулатура для песни "Forever", исполняет "Kiss".
Используемые в песне аккорды можно найти в разделе Как брать аккорды. Аккорды для шестиструнной гитары. Другие песни можно найти на нашем сайте, воспользовавшись алфавитным указателем вверху страницы.


Слушать онлайн Forever


KissForever на Яндекс.Музыке


 
Ошибка в тексте? Выделите ошибку и нажмите Ctrl+Enter