Artist: Kiss

Title: Firehouse

Album: Kiss

Written by Paul Stanley
Tabbed by: Adam Ramone

-------------------------------------------------------------------------------|
----------------------------------7--8--7--8--7--8--7--------------------------|
-2----2----4----2----2----2--2----7--7--7--7--7--7--7--------------------------|
-2----4----6----4----2----4--2----7--9--7--9--7--9--7--------------------------|
-0----0----0----0----0----0--0-------------------------------------------------|
-------------------------------------------------------------------------------|


-----------------------------------------------------------------------------|
-----------------------------------------------------------------------------|
-9----9--9--9--9--9------------2-----2-----4-----2-----2--2--2--2------------|
-7----7--7--7--7--7------------2-----4-----6-----4-----2--2--4--2------------|
---------------------10--12---0--0--0--0--0--0--0--0--0--0--0--0------------|
-----------------------------------------------------------------------------|


-----------------------------------------------------------------------------|
-7--8--7--8--7--8--7---------------------------------------------------------|
-7--7--7--7--7--7--7----2----------------------------------------------------|
-7--9--7--9--7--9--7----2----------------------------------------------------|
---------------------0--0----------------------------------------------------|
-----------------------------------------------------------------------------|


-----------------------------------------------------------------------------|
-----------------------------------------------------------------------------|
7vvvvvvvvvvvvvvvv----7vvvvvvvvvvvvvvvv---------------------------------------|
-----------------------------------------------------------------------------|
-----------------------------------------------------------------------------|
-----------------------------------------------------------------------------|

Fill 1
----------------------------------------------------------5------------------|
-------------------------------------8--7--8--7--8--7-----5------------------|
-2----------------2------------------7--7--7--7--7--7-----2------------------|
-2----------------2------------------9--7--9--7--9--7-----2------------------|
-0----------------0------------------------------------0--0------------------|
----3----0--3--0-----3----0--3--0--------------------------------------------|


----------------------------------------------------------5------------------|
-------------------------------------8--7--8--7--8--7-----5------------------|
-2----------------2------------------7--7--7--7--7--7-----2------------------|
-2----------------2------------------9--7--9--7--9--7-----2------------------|
-0----------------0------------------------------------0--0------------------|
----3----0--3--0-----3----0--3--0--------------------------------------------|

-5--x--------5--x-----------------------------5------------------------------|
-5--x--------5--x--------8--7--8--7--8--7-----5------------------------------|
-2--x--------2--x--------7--7--7--7--7--7-----2------------------------------|
-2--x--------2--x--------9--7--9--7--9--7-----2------------------------------|
-0--x--------0--x--------------------------0--0------------------------------|
-----------------------------------------------------------------------------|


-5--x--------5--x-----------------------------5-------------------------------|
-5--x--------5--x--------8--7--8--7--8--7-----5-------------------------------|
-2--x--------2--x--------7--7--7--7--7--7-----2-------------------------------|
-2--x--------2--x--------9--7--9--7--9--7-----2-------------------------------|
-0--x--------0--x--------------------------0--0-------------------------------|
------------------------------------------------------------------------------|


-----------------------------------------------------------------------------|
-----------------------------------------------------------------------------|
-5-------------------------3------------4--4---------------------------------|
-5------------5------------3------------4--4--2------------------------------|
-3------------5------------1------------2--2--2------------------------------|
--------------3-------------------------------0------------------------------|


---------------p---------------------------6-----8------9-----11--11---------|
-11b--11b--11br-8---------------p-----------------------------12--12---------|
------------------10b--10b--10br-8-----5/7---7/9---9/10---10--11--11--9------|
-----------------------------------10---------------------------------9------|
----------------------------------------------------------------------7------|
-----------------------------------------------------------------------------|

Fill 2
-5--x--------5---------------------------------------------------------5-----|
-5--x--------5------------------------------------8--7--8--7--8--7-----5-----|
-2--x--------2------------------------------------7--7--7--7--7--7-----2-----|
-2--x--------2------------------------------------9--7--9--7--9--7-----2-----|
-0--x--------0----3b----3b----0-------------------------------------0--0-----|
-----------------------------------0----3----0-------------------------------|


-5--x--------5---------------------------------------------------------5-----|
-5--x--------5------------------------------------8--7--8--7--8--7-----5-----|
-2--x--------2------------------------------------7--7--7--7--7--7-----2-----|
-2--x--------2------------------------------------9--7--9--7--9--7-----2-----|
-0--x--------0----3b----3b----0-------------------------------------0--0-----|
-----------------------------------0----3----0-------------------------------|


-5--x--------5--x-----------------------------5------------------------------|
-5--x--------5--x--------8--7--8--7--8--7-----5------------------------------|
-2--x--------2--x--------7--7--7--7--7--7-----2------------------------------|
-2--x--------2--x--------9--7--9--7--9--7-----2------------------------------|
-0--x--------0--x--------------------------0--0------------------------------|
-----------------------------------------------------------------------------|


-5--x--------5---------------------------------------------------------5-----|
-5--x--------5------------------------------------8--7--8--7--8--7-----5-----|
-2--x--------2------------------------------------7--7--7--7--7--7-----2-----|
-2--x--------2------------------------------------9--7--9--7--9--7-----2-----|
-0--x--------0----3b----3b----0-------------------------------------0--0-----|
-----------------------------------0----3----3-------------------------------|


-----------------------------------------------------------------------------|
-----------------------------------------------------------------------------|
-5-------------------------3------------4--4---------------------------------|
-5------------5------------3------------4--4--2------------------------------|
-3------------5------------1------------2--2--2------------------------------|
--------------3-------------------------------0------------------------------|


---------------p---------------------------6-----8------9-----11--11---------|
-11b--11b--11br-8----------------p----------------------------12--12---------|
-------------------10b--10b--10br-8----5/7---7/9---9/10---10--11--11---------|
------------------------------------10--------------------------------9------|
----------------------------------------------------------------------9------|
----------------------------------------------------------------------7------|

Fill 2
----------------------------------------------------------------5------------|
-------------------------------------------8--7--8--7--8--7-----5------------|
-2------------------2----------------------7--7--7--7--7--7-----2------------|
-2------------------2----------------------9--7--9--7--9--7-----2------------|
-0------------------0----------------------------------------0--0------------|
----3----0--3--0-------3----0--3--0------------------------------------------|


----------------------------------------------------------------5------------|
-------------------------------------------8--7--8--7--8--7-----5------------|
-2------------------2----------------------7--7--7--7--7--7-----2------------|
-2------------------2----------------------9--7--9--7--9--7-----2------------|
-0------------------0----------------------------------------0--0------------|
----3----0--3--0-------3----0--3--0------------------------------------------|


-----------------------------------------------------------------------------|
-----------------------------------------------------------------------------|
-4--------4------------------------------------------------------------------|
-4--------4--------2--------2--------3--------3--------5--5-------5----------|
-2--------2--------2--------2--------3--------3--------5--5-------5----------|
-------------------0--------0--------1--------1--------3--3-------3----------|


-----------------------------------------------------------------------------|
----p--------------p----------------p-----------------p---13b----------------|
-9br-7---------11br-9-----------12br-10-----------14br-12--------------------|
-------9--------------11----------------10-----------------------------------|
-----------------------------------------------------------------------------|
-----------------------------------------------------------------------------|

Fill 3
-----------------------------------------------------------------------------|
-----------------------------------------------------------------------------|
-7b^--7b--7b^--7b--7b^--7b--7b^--7b--7b^--7b--7b^--7b--7b^--7b--7b^--7b------|
-----------------------------------------------------------------------------|
-----------------------------------------------------------------------------|
-----------------------------------------------------------------------------|


-----------------------------------------------------------------------------|
---------------------------------------------p-------------------------------|
-5b--5b-----------------x--2--x--4----4b--4br-2-----2------------------------|
---------7---------------------------------------4-------4--2--4-------------|
------------------/2----------------------------------------------5----------|
---------------------------------------------------------------------5--3b---|
                                                         ^notes are muted^

-----------------------------------------------------------------------------|
-----------------------------------------------------------------------------|
-------------------------h---------------------------------------------------|
--h---5--5--x--5--x--7--5-7--5--5--x--5--x--7--------------------------------|
-5-7-------------------------------------------------------------------------|
-----------------------------------------------------------------------------|


-----------------------------------------------------------------------------|
---------------------------------8b------------------------------------------|
-7b^--7b--7b^--7b--7^--7--7^--5----------------------------------------------|
-----------------------------------------------------------------------------|
-----------------------------------------------------------------------------|
-----------------------------------------------------------------------------|


-----------------------------------------------------------------------------|
-----------------------------------------------------------------------------|
-4--------4------------------------------------------------------------------|
-4--------4--------2--------2--------3--------3--------5--5----5-------------|
-2--------2--------2--------2--------3--------3--------5--5----5-------------|
-------------------0--------0--------1--------1--------3--3----3-------------|


-----------------------------------------------------------------------------|
----p----------------p-----------------p------------------p---13b------------|
-9br-7-----------11br-9------------12br-10------------14br-12----------------|
-------9----------------11-----------------10--------------------------------|
-----------------------------------------------------------------------------|
-----------------------------------------------------------------------------|

Fill 3
-----------------------------------------------------------------------------|
-----------------------------------------------------------------------------|
-2-----2-----4-----2-----2--2--2--2--------7--8--7--8--7--8--7---------------|
-2-----4-----6-----4-----2--2--4--2--------7--7--7--7--7--7--7---------------|
-0--0--0--0--0--0--0--0--0--0--0--0--------7--9--7--9--7--9--7---------------|
-----------------------------------------------------------------------------|


-----------------------------------------------------------------------------|
-7b----7--5------------------------------------------------------------------|
-7b----7--5--------5---------------------------------------------------------|
------------7------5---------------------------------------------------------|
--------------5--7-----------------------------------------------------------|
-----------------------------------------------------------------------------|


----------------------------------------------------------------5------------|
----------------------------------------------------------------5------------|
-2------------------2----------------------8--7--8--7--8--7-----2------------|
-2------------------2----------------------7--7--7--7--7--7-----2------------|
-0------------------0----------------------9--7--9--7--9--7--0--0------------|
----3----0--3--0-------3----0--3--0------------------------------------------|


-----------------------------------------------------------------------------|
-----------------------------------------------------------------------------|
-2------------------2------------5--4--2-----4--2--2-------------------------|
-2------------------2------------5--4--2-----4--2--2-------------------------|
-0------------------0---------------------0--------0-------------------------|
----3----0--3--0-------------------------------------------------------------|


-----------------------------------------------------------------------------|
-----------------------------------------------------------------------------|
-----------------------------------------------------------------------------|
-/5----4----2---------/4----2------------------------------------------------|
-----------------0---------------0-------------------------------------------|
-----------------------------------------------------------------------------|

Fill 4
-----------------------------------------------------------------------------|
-----------------------------------------------------------------------------|
-2------------------2------------5--4--2-----4--2--2-------------------------|
-2------------------2------------5--4--2-----4--2--2-------------------------|
-0------------------0---------------------0--------0-------------------------|
----3----0--3--0-------------------------------------------------------------|


-----------------------------------------------------------------------------|
-----------------------------------------------------------------------------|
-----------------------------------------------------------------------------|
-/5----4----2---------/4----2------------------------------------------------|
-----------------0---------------0-------------------------------------------|
-----------------------------------------------------------------------------|
Good Luck!!


Текст, аккорды и табулатура для песни "Firehouse", исполняет "Kiss".
Используемые в песне аккорды можно найти в разделе Как брать аккорды. Аккорды для шестиструнной гитары. Другие песни можно найти на нашем сайте, воспользовавшись алфавитным указателем вверху страницы.


Слушать онлайн Firehouse


KissFirehouse на Яндекс.Музыке


 
Ошибка в тексте? Выделите ошибку и нажмите Ctrl+Enter