C'mon and love me by Kiss
Tabbed in Standard Tuning

(Intro)
G:----------|
D:-------5-6|
A:2-3-------|
E:----------|

G:---------------------------------------|
D:---------------------6-6-6-6-6-6---6--8|
A:3-3-3-3-3-3-1-3----1-------------6--6--|
E:-----------------4---------------------|

G:--------------------|      |----------|
D:--------------------| -x2  |6(8)--8(8)|
A:3-3-3-3-3-3-1-3----1|      |----------|
E:-----------------4--|      |----------|

G:--------------------|      |----------|
D:--------------------| -x3  |6(8)--8(8)|
A:3-3-3-3-3-3-1-3----1|      |----------|
E:-----------------4--|      |----------|

G:--------------------|
D:--------------------|
A:3-3-3-3-3-3-1-3--3-5|
E:--------------------|

G:-----------------------------|
D:-----------------------------|
A:6(12)------------------------|
E:------6-6-6-6-6-4-5-6-6-6-6-6|

G:-----------------------------|
D:----------------------------5|
A:6-6-6-6-6-6-4----------------|
E:--------------6--0(8)--1(8)--|

G:---------------------------------------|
D:---------------------6-6-6-6-6-6---6--8|
A:3-3-3-3-3-3-1-3----1-------------6--6--|
E:-----------------4---------------------|

G:--------------------|      |----------|
D:--------------------| -x2  |6(8)--8(8)|
A:3-3-3-3-3-3-1-3----1|      |----------|
E:-----------------4--|      |----------|

G:--------------------|      |----------|
D:--------------------| -x3  |6(8)--8(8)|
A:3-3-3-3-3-3-1-3----1|      |----------|
E:-----------------4--|      |----------|

G:--------------------|
D:--------------------|
A:3-3-3-3-3-3-1-3--3-5|
E:--------------------|

G:-----------------------------|
D:-----------------------------|
A:6(12)------------------------|
E:------6-6-6-6-6-4-5-6-6-6-6-6|

G:------------------|
D:------------------|  x3
A:3-3-3-3-3-3-1----1|
E:---------------4--|

G:--------------------|
D:--------------------|
A:3-3-3-3-3-3-1-3--3-5|
E:--------------------|

G:-----------------------------|
D:-----------------------------|
A:6(12)------------------------|
E:------6-6-6-6-6-4-5-6-6-6-6-6|

G:-----------------------------|
D:----------------------------5|
A:6-6-6-6-6-6-4----------------|
E:--------------6--0(8)--1(8)--|

G:------------------|
D:------------------|  x8 (the song then fades out)
A:3-3-3-3-3-3-1----1|
E:---------------4--|

Thanks, please rate it after you learn it.
Tabbed by:
_TheBassist01_


Текст, аккорды и табулатура для песни "Cmon And Love Me", исполняет "Kiss".
Используемые в песне аккорды можно найти в разделе Как брать аккорды. Аккорды для шестиструнной гитары. Другие песни можно найти на нашем сайте, воспользовавшись алфавитным указателем вверху страницы.


Слушать онлайн C’Mon Everybody


Eddie CochranC’Mon Everybody на Яндекс.Музыке


 
Ошибка в тексте? Выделите ошибку и нажмите Ctrl+Enter