INTRO:

|--3--------3--------3--1--0----------------------------------------------------1-----|
|--------1----1---------------3--1--0---------1-----1---------0-----1-----3-----------|
|-----0----------0-------------------------2-----2-----2---------0-----0-----0-----0--|
----------------------------3-----------------3---------------------------|
|--3----------------------------------------------------------------------------------|
--------------------------------------------------------------------------|

|--3--------3------3--1--0---------------------------------3--|
|--------1----1-------------3--1--0--------1-----1---------3--|
|-----0---------0-----------------------2-----2-----2------0--|
-------------------------3-----------------3---0--|
|--3-------------------------------------------------------2--|
-----------------------------------------------3--|

VERS:
 
C                  Dm          Cmaj7                 Am      G 
Beth, I rear you callin´ but I can´t come home right now,
F                   G              C                    E       E
Me and the boys are playin´ and we just can´t find the sound.
Am                G            F                  Em
Just a few more hours and I´ll be right home to you.
Dm                 F     G     Am 
Think I hear them callin´.  Oh Beth, what can I do?
F          G     C
Beth, what can I do?


C                   Dm              Cmaj7               Am       G
You say you feel so empty, that our house just ain´t a home 
F                    G               C              E
I´m always somewhere else and you´re always there alone
Am                G            F                  Em
Just a few more hours and I´ll be right home to you.
Dm                 F     G     Am 
Think I hear them callin´.  Oh Beth, what can I do?
F          G     C
Beth, what can I do?


C                    Dm           Cmaj7               Am       G  
Beth, I know you´re lonely, and I hope you´ll be all right,
      F
cause me and the boys will be playin´ all nighte.


SOLO:

E-----------------------------------------8---10^-10^-10^-8--8--9--10--8--9--10--8--9-10--
B------5------------8-----8--10^--8--8h10-------------------------------------------------
G-|-----5-----5--7^5--7--5---9----9-------------------------------------------------------------------
D-|--7-----5------------------------------------------------------------------------------------------
A-----------------------------------------------------------------------------------------
E-----------------------------------------------------------------------------------------

E-|--10^--10^--8h10--p8-----8-------------------------------------------------------------------------
B------------10-----8--8h10p8------------------------------8-----8--10^-------------------
G---------------------------------9--8--7---5--7^--5--7---9-----9-------------------------
D-----------------------------------------------------------------------------------------
A-----------------------------------------------------------------------------------------
E-----------------------------------------------------------------------------------------

E-|----8--9--10--8--9--10----10^--10-----8h10p8-----8----
B------------------------------------10------
G--------------------------------------------
D--------------------------------------------
A--------------------------------------------
E--------------------------------------------


Текст, аккорды и табулатура для песни "Beth", исполняет "Kiss".
Используемые в песне аккорды можно найти в разделе Как брать аккорды. Аккорды для шестиструнной гитары. Другие песни можно найти на нашем сайте, воспользовавшись алфавитным указателем вверху страницы.


Слушать онлайн Beth


KissBeth на Яндекс.Музыке


 
Ошибка в тексте? Выделите ошибку и нажмите Ctrl+Enter