E---0---0---0--|
B--------------|
G--------------|
D--2---2---2---|
A--------------|
E-3--32--20--00|

ИЛИ

E------------------|
B------------------|
G--0---------------|
D------4--2-2------|
A------------------|
E-3--2--0--0 -----0|

1)Представь себе, что ты лежишь в гробу
  Тебе так сыро и тепло
  С червями ты выдешь войну
  Хотя, кто победит уж все равно

2)Они уничтожают твое тело
  Ты слышишь хруст их челюстей
  Они все знают свое дело,
  Ты станешь горсточкой костей



Текст, аккорды и табулатура для песни "В гробу", исполняет "Кирпичи".
Используемые в песне аккорды можно найти в разделе Как брать аккорды. Аккорды для шестиструнной гитары. Другие песни можно найти на нашем сайте, воспользовавшись алфавитным указателем вверху страницы.


 
Ошибка в тексте? Выделите ошибку и нажмите Ctrl+Enter