последняя струна ( шестая) идет под рэ D. 
Т.е. спускаете
 последнюю струну что бы она шла в унисон с четвертой.Ну вот и сама песня:

Вступление 4х
E---------------------------------------------------------------------
H---------------------------------------------------------------------
G---------------------------------------------------------------------
D----3/2--2-2---3/2--------------------------------------------------
A----3/2--2-2---3/2--------------------------------------------------
D----3/2--2-2---3/2-2-2-3-0-----------------------------------------
Гитара
Куплет1
Бас 

G-----------------------------------------
D-----------------------------------------
A---------0-0-0-0---------0-1-0-1-------
D0-0-0-0---------3-3-3-3----------------

Ну что школьнички как вам музычка,
Типа как в тубзике, с пестиком зычка
Как вам покурилось на переменке,
Что Рэп-Калл еще написано на стенке 
Как там Slipknot? как там Limp Bizkit?
У меня он уже давно вот тут сидит.
Носите ли так кепке? Потому что пьете наше пиво
Не заманала ли сила блин вечного речетатива?
Саршие мальчишки маленьких не грабят?
Тетеньки в столовке не очень ли травят ?
Всякую пакость в себя непихаете?
Нет, хорошо, тогда ладно гуляйте!!!

Припев:


4|-0-            4|-6-             4|-3-           4|-2- 
5|-0- - D      5|-6- - G#    5|-3-  -  F    5|-2-  - E
6|-0-            6|-6-            6|- 3-           6|- 2-

D
I HATE THIS FUCKING WORLD
G#
I HATE THIS FUCKING WORLD
F
I HATE THIS FUCKING WORLD
E
THIS FUCKING WORLD I HATE

Куплет 2:

Ну что дети, как там в Интернете?
В чатах сидите? гадите в сети?
Как оценки? Не достает ли химоза?
Физичка не сидит ли как в попе заноза?
Кто получает по Инглишу тройки?
Не запалили ли кого в процесе буйной побойки?
Как там Обэжэшник? Все так же туп?
Как там Мамаша? Пускает ли в клуб?
Че там девченки? Бежать кросс дохнут.
Как там на улице? Шир. штаны быстро сохнут?
Главное всякую гадость в тело не суйте.!
Нет, Ок тогда ладно тусуйте!

Припев:

Типа  Вступление

Куплет 3:
(Тут гитара идет так):
G|-----9-------
D|-7---7----10-
A|-5---------8 -
Только ритм удержывайте!
А потом:

G|------2222------2121|
D|-0000-----3333------|

Чем бы дитя не тешилось, только бы не вешалось!
Что там наркотики, не проели плешь еще?
Бля , ведь это послушает мама!
Не беспокойся чувак дальше без мата фонограмма.
Не хочится ли все больше Трэшу и Угару?
не вломно ли потом вставать на первую пару?
Часто ли все по барабану, абсолютно, 
Ни надоели ли пока не достают ли!
Всякие вольности и всякие излишки,
И не делает там кто нибудь темные делишки?
Ладно надоело я кончаю ребятки!
Я надеюсь детки что у вас все в порядке!!!!

Припев:


Текст, аккорды и табулатура для песни "Школьнички (I Hate This Fucking World)", исполняет "Кирпичи".
Используемые в песне аккорды можно найти в разделе Как брать аккорды. Аккорды для шестиструнной гитары. Другие песни можно найти на нашем сайте, воспользовавшись алфавитным указателем вверху страницы.


 
Ошибка в тексте? Выделите ошибку и нажмите Ctrl+Enter